Rage Against The Machine - Vietnow Correct Chords & Tabs

 

Vietnow Correct Chords & Tabs

Rage Against The Machine Chords & Tabs

Version: 1 Type: Tab 1 rating
1 star 2 stars 3 stars 4 stars 5 stars
comments

Vietnow Correct Tab

Vietnow 
Rage Against The Machine
Track 3
Evil Empire 
The other tab put up was incorrect, this tab is out of 
the Rage Against The Machine tab book, so it's correct
  Riff A & B (Played during intro)
e-------------------------------------------------
B-------------------------------------------------
G-------------------------------------------------
D-------------------------------------------------
A--------0-0--------0-0------------------------0-0 
E-0-2-2-0----0-2-2-0----0-2-2-0-2-2-2-0-2-2-2-0--- 
 w/ Digitech Whammy Pedal set to harmonize one octave lower.
      Riff C (Played during Verse)
e--------------------------------------------
B-------------------------------------------7
G-------------------------------------------6
D-------------------------------------------7 Fade in 
A-----------------------0-0--------0-0------0 w/ vol. 
E-0-2-2-0-2-2-2-0-2-2-2-0----0-2-2-0--------- knob 

e----------------------------------------------------------
B----------------------------------------------------------
G----------------------------------------------------------
D---4-4-----------------4-4--------------4-4---------------
A----------------------------------------------------------
E------0-2-0-5-(5)-0--------0-2-0-5-(5)-0----0-2-0-5-(4)--0

 That's pretty much it! Tons of repeating riffs 
                                           
[ Tab from: http://www.guitartabs.cc/tabs/r/rage_against_the_machine/vietnow_correct_tab.html ]
Comments