Rage Against The Machine - Vietnow Chords & Tabs

 

Vietnow Chords & Tabs

Rage Against The Machine Chords & Tabs

Version: 2 Type: Bass Tab 0 ratings
1 star 2 stars 3 stars 4 stars 5 stars
comments

Vietnow Bass Tab

Band:  Rage Against The Machine         
Song:  Vietnow 
CD:    Evil Empire
                                     (by specter@tir.com)	

I went with standard tuning, i am no bassist pro, but this sounds
right, so i went along and tabbed this.....I Think this is right...
but if not its my first tab so don't wine....

G:----------|---------------------------|
D:--Guitar--|---------------------------|
A:----------|--------0-0--------0-0--R--|
E:----------|--2--2-------2--2----------|
TURN ON THA RADIO...


Fill 2 (x3) (verse riff) (x20)
G:----------------------------------------------|------------------------|
D:*--------------------------------------------*|*----------------------*|
A:*------------------------0-0--------0-0---R--*|*----------------------*|
E:---2-2-2-2-2-2-2-2-2--2-------2--2------------|---0-2-2-0-2-2-2-2--R---|

RIFF 1 
G:------------------------------|-----------------------------|
D:------------------------------|-----------------------------|
A:--9-9-------------------------|-9-9-------------------------|
E:-------0--2--0--5b(6)r)(5)--0-|------0--2--0--5b(6)r(5)--0--|
SHUT DOWN



               (end riff 1.)   Fill3.
G:------------------------------------|---------------------------------|
D:------------------------------------|---------------------------------|
A:------------------------------------|---------------------------------|
E:-2-2--0--2--0--5b(6)r(5)-4--0--2-2--|-X-X-X-X-X-X-X-X-X-X-X-X-X-X-X-X-|
the devil sound tha program of vietnow...

[ Tab from: http://www.guitartabs.cc/tabs/r/rage_against_the_machine/vietnow_btab_ver_2.html ]
G:----------|----------|---------------|---------------|----------|----------|
D:--Riff-1--|--Fill-1--|--Fill-2-(x3)--|--Verse-(x16)--|--Riff-1--|--Fill-3--|
A:----------|----------|---------------|---------------|----------|----------|
E:----------|----------|---------------|---------------|----------|----------|

G:----------|----------|
D:--Riff-1--|---REST---|
A:----------|----------|
E:----------|----------|


(x2)
G:-------------------------------------------------------------|
D:-------------------------------------------------------------|
A:-0--/9--3-----3--/9--3-----3--/9--3-----3--/9--9-7-9--9-7-9--|
E:-----------2------------2------------2-----------------------|


(x2)
G:--------------------------------------------------------------|----------|
D:--------------------------------------------------------------|--Fill-1--|
A:--0--/9--3-----3--/9--3-----3--/9--3-----3--/9--9-7-9--9-7-9--|----------|
E:------------0------------0------------0-----------------------|----------|


G:----------|-----------------------------------------------------|
D:--Fill-2--|-----------------------------------------------------|
A:----------|-----2-----2-0---2-0---2-0-------0-0--R--------0-0---|
E:----------|--2------------2-----2-----2--2----------2--2--------|


G:----------|-----------------|----------|---------------|
D:--Fill-2--|-----------------|--Fill-1--|--Fill-2-(x3)--|
A:----------|-----------------|----------|---------------|
E:----------|--X-3--X-2--X-3--|----------|---------------|


(x8)  (x8)
G:----------------------------|-------------|------------------|
D:*--------------------------*|*-----------*|--GUITAR EFFECTS--|
A:*--------------------------*|*-----------*|------------------|
E:--0-2-2-0-2-2-2-2-X-X--X-X--|--X-2--X-3---|------------------|



Now Ain't tha fun?  Hmm, i think i will do revolver next...
hehehe Chew on this one for a little while tho.......
Comments