Rage Against The Machine - The Ghost Of Tom Joad Chords & Tabs

 

The Ghost Of Tom Joad Chords & Tabs

Rage Against The Machine Chords & Tabs

Version: 3 Type: Tab 0 ratings
1 star 2 stars 3 stars 4 stars 5 stars
comments

The Ghost Of Tom Joad Tab

------------------------------------------------------------                  "The Ghost of Tom Joad"
                by- Rage Against The Machine
------------------------------------------------------------
Tabbed by Sam LaPolla 

Dropped D Tunning 

Intro/Chorus

|-----------------------|         |---|
|-----------------------|         |---|
|-----------------------|         |---|
|-----------------------| x3 Then |---|
|---5-3-0-------3---0-3-|         |---|
|-0-------5-3-0---5-----|         |-0-| (Let Ring)

Verse
[ Tab from: http://www.guitartabs.cc/tabs/r/rage_against_the_machine/the_ghost_of_tom_joad_tab_ver_3.html ]
|-------------|
|-------------|
|-------------|
|-------------|       
|-----3---0-3-| x17
|-0-----5-----|   Let Ring for a sec then stop palm mute
  ^-------------------------

Chorus
    Play the Intro for the Chorus

  2nd part of the Chorus

|-10-10-10----------|
|-10-10-10----------|
|-10-10-10----------|
|-------------------|
|----------3---0-3--|
|------------5------|

Play this twards the End Several times then go play the 
-chorus

|-----------------------|
|-----------------------|
|--xxxxxxxx-------------|
|--xxxxxxxx-------------|
|--xxxxxxxx-------------|
|--xxxxxxxx-------------|

Order

Intro/chorus
Verse
Chorus
Chorus 2
Verse
Chorus
Chorus 2
Verse
Muted Section
Chorus
Comments