Rage Against The Machine - The Ghost Of Tom Joad Chords & Tabs

 

The Ghost Of Tom Joad Chords & Tabs

Rage Against The Machine Chords & Tabs

Version: 1 Type: Tab 0 ratings
1 star 2 stars 3 stars 4 stars 5 stars
comments

The Ghost Of Tom Joad Tab

Band : Rage Against The Machine
Song : The Ghost Of Tom Joad
Album : Renegades

Tabbed By Guitarmongol90

Contact me on AIM at : Antiflag618

Drop D Tuning : DADGBE (lowest to highest)

(Random picking at the start, gradually get louder)

Intro/Chorus section
|----------------------|
|----------------------|
|----------------------|
|----------------------|
|---5-3-0-------3--0-3-|         (do this section 3X, then let 0 on D ring)
|-0-------5-3-0---5----|


Verse Section
[ Tab from: http://www.guitartabs.cc/tabs/r/rage_against_the_machine/the_ghost_of_tom_joad_tab.html ]
|----------------------|
|----------------------|
|----------------------|
|----------------------|       (x17) (let 0 ring then palm mute the rest)
|-----3----0-3---------|
|-0-----5--------------|



2ND Part Of Chorus


|--X--X--X-----------|
|--6--6--6-----------|
|--5--5--5-----------|
|--X--X--X-----------|
|--5--5--5---3---0-3-|
|--0--0--0----5------|



                  D--x
                  A--x
Then just do this D--X a bunch of times,
and then play the chorus....

well im done 

**PEACE**
                                    
Comments