Rage Against The Machine - The Ghost Of Tom Joad Chords & Tabs

 

The Ghost Of Tom Joad Chords & Tabs

Rage Against The Machine Chords & Tabs

Version: 2 Type: Bass Tab 0 ratings
1 star 2 stars 3 stars 4 stars 5 stars
comments

The Ghost Of Tom Joad Bass Tab

Rage Against The Machine - The Ghost Of Tom Joad

Tabbed By Stephen Pang (piequat@hotmail.com)

*Dropped D Tuning*
[ Tab from: http://www.guitartabs.cc/tabs/r/rage_against_the_machine/the_ghost_of_tom_joad_btab_ver_2.html ]
Verse
G|-----------------|    G|---------------|
D|-----------------|    D|---------------|
A|-------3----0-3--| or A|-----3----0-3--|
D|-12\------5------|    D|-0------5------|

or even
G|----------------|
D|----------------|
A|-5\---3----0-3--|
D|-0-------5------|

Chorus
G|--------------------------|
D|--------------------------|
A|---5-3-0--------3----0-3--|
D|-0-------5-3-0-----5------|
Comments