Rage Against The Machine - The Ghost Of Tom Joad Chords & Tabs

 

The Ghost Of Tom Joad Chords & Tabs

Rage Against The Machine Chords & Tabs

Version: 1 Type: Bass Tab 0 ratings
1 star 2 stars 3 stars 4 stars 5 stars
comments

The Ghost Of Tom Joad Bass Tab

Artist: Rage Against the Machine
Song: The Ghost of Tom Joad
Album: Renegades
Transcribed by: Jonas Marksell (jonas.marksell@telia.com)


Intro/Chorus:
[ Tab from: http://www.guitartabs.cc/tabs/r/rage_against_the_machine/the_ghost_of_tom_joad_btab.html ]
G-----------------------------I
D-----------------------------I
A-----5-3-0--------3----0--3--I
D--0--------5-3-0-----5-------I X4

G-----I
D-----I
A--5--I
D--0--I end like this...

Verse:

G-------------------------I
D-------------------------I
A--3/5--5--x-x-3----0--3--I
D-----------------5-------I




repeat over and over until the song ends...

Comments