Rage Against The Machine - Snakecharmer Chords & Tabs

 

Snakecharmer Chords & Tabs

Rage Against The Machine Chords & Tabs

Version: 1 Type: Tab 0 ratings
1 star 2 stars 3 stars 4 stars 5 stars
comments

Snakecharmer Tab

SNAKECHARMER
Performed by Rage Against The Machine
Album: Evil Empire
Tabbed by Adam Poulsen
Dropped D Tuning

INTRO
|-----------------------------------------------|
|-------18--------18--------18---------18-------|
|-------17--------17--------17---------17-------|
|-------16--------16--------16---------16-------|
|-------17--------17--------17---------17-------|
|--0--------0-0--------0---------0-0------------|

VERSE
|-----------------------------------------------|
|-----------------------------------------------|
|------12--------------------12-----------------|
|-----------------------------------------------|
|--0-0-------------------0-0--------------------|
|--0-0----0-10-12-10-12--0-0-----0-10-12-12-11--|

PRE-CHORUS
|-------------------------------------------------------|
|-------------------------------------------------------|
|-------12------------------------12--------------------|
|---------------10-12-10-12----------------10-12-12-11--|
|--0------------10-12-10-12--0-------------10-12-12-11--|
|--0----------0-10-12-10-12--0-----------0-10-12-12-11--|
[ Tab from: http://www.guitartabs.cc/tabs/r/rage_against_the_machine/snakecharmer_tab.html ]
CHORUS
|---------------------------------------------------|
|---------------------x-x---------------------xxxx--|
|---------------------x-x---------------------xxxx--|
|--12-12-12-12-12-10--x-x--12-12-12-12-12-10--xxxx--|
|--12-12-12-12-12-10--x-x--12-12-12-12-12-10--xxxx--|  
|--12-12-12-12-12-10-------12-12-12-12-12-10--------|

BRIDGE
|--------------------------------------------------|
|--------18-----------18-----------18----------18--|
|--------17-----------17-----------17----------17--|
|--------16-----------16-----------16----------16--|
|--------17-----------17-----------17----------17--|
|--0------------0------------0-----------0---------|

|--------------------------------|
|--------------------------------|
|--------------------------------|
|--------------------------------|
|--0--0--5-3-0--7-5-0--5--3------|
|--0--0--5-3-0--7-5-0-------3b---|

|-------------------------------|
|-------------------------------|
|-------------------------------|
|-------------------------------|
|--0--/5--5----5-3-----------0--|
|--0---------------5--3------0--|


GUITAR SOLO
Fuck around with microphonic feedback (or feedback with a 
wah filtering)
Comments