Rage Against The Machine - Settle For Nothing Chords & Tabs

 

Settle For Nothing Chords & Tabs

Rage Against The Machine Chords & Tabs

Version: 6 Type: Tab 0 ratings
1 star 2 stars 3 stars 4 stars 5 stars
comments

Settle For Nothing Tab

   
SETTLE FOR NOTHING BY RATM
This is my first tab so there may be a few mistakes.
I'm not sure how Tom is getting those eerie moaning sounds from his guitar and I'm not
sure how he makes his guitar screech at the end of the second verse, during the second
chorus, and at the end of the song but I tabbed everything else.
P.S. THIS SONG ROCKS!!!!(especially the solo)

Tuning: regular (e,b,g,d,a,e) 

Verse 1: play 3x

e------------------------------------------------------------------------
b------------------------------------------------------------------------
g------------------------------------------------------------------------
d------------------------------------------------------------------------
a---5-0-5-------5-0-5-------5-0-5-0------5-0-5-------5-0-5-------5-0-5---
E---------7-----------6------------------------6-----------7-----------6-

e------------------------------------------------------------------------
b------------------------------------------------------------------------
g------------------------------------------------------------------------
d------------------------------------------------------------------------
a---5-0-5-0----5-0-5-----------------------------------------------------
E--------------------6---------------------------------------------------

Chorus: play 2x

e------------------------------------------------------------------------
b------------------------------------------------------------------------
g------------------------------------------------------------------------
d------------------------------------------------------------------------
a-----0--------------0--------------0--------------0---------------------
E---0---0-1-3-2~---0---0-1-3-2~---0---0-1-3-2~---0---0-1-3-2-------------
                                  "SUICIDE!!!"        
Verse 2: play 2.5x

e------------------------------------------------------------------------
b------------------------------------------------------------------------
g------------------------------------------------------------------------
d------------------------------------------------------------------------
a---5-0-5-------5-0-5-------5-0-5-0------5-0-5-------5-0-5-------5-0-5---
E---------7-----------6------------------------6-----------7-----------6-

e------------------------------------------------------------------------
b------------------------------------------------------------------------
g------------------------------------------------------------------------
d------------------------------------------------------------------------
a---5-0-5-0----5-0-5-----------------------------------------------------
E--------------------6---------------------------------------------------

Chorus: play 4x

e------------------------------------------------------------------------
b------------------------------------------------------------------------
g------------------------------------------------------------------------
d------------------------------------------------------------------------
a-----0--------------0--------------0--------------0---------------------
E---0---0-1-3-2~---0---0-1-3-2~---0---0-1-3-2~---0---0-1-3-2~------------
                                  "GENOCIDE!!"                  
Solo: h= hammer on \=slide

e--14-12-10--------------------------------------------------------------
b-----------14-12-10----------------------------------12h14h15----15-14--
g--------------------12-11----11-------------11h12h14--------------------
d--------------------------14-------11h12h14-----------------------------
a------------------------------------------------------------------------
E------------------------------------------------------------------------

e-----------14--15--17-17\19-----17--15-14-------------------------------
b--12h14h15-------------------------------15-----------------------------
g--------------------------------------------14\----11-12-14-12-11-------
d---------------------------------------------------11-------------14----
a------------------------------------------------------------------------
E------------------------------------------------------------------------
[ Tab from: http://www.guitartabs.cc/tabs/r/rage_against_the_machine/settle_for_nothing_tab_ver_6.html ]
e------------------------------------------------------------------------
b--------------------------------12----14----12--------------------------
g--11-11---11---11---12-11-12-11----11----11----11-----11-12-14(bend)-14-
d------------------------------------------------------11----------------
a------------------------------------------------------------------------
E------------------------------------------------------------------------

e----x---x-----------10-11-12-11-10--------------------------------------
b----x---x--------------------------12-11-10-----11-10-------------------
g----x---x-----------------------------------12--------12-11-10----------
d----x---x------------------------------------------------------12-------
a----x---x---------------------------------------------------------------
E----x---x---------------------------------------------------------------

e------------------------------------------------10-----------12-11-10---
b---------------------------------------10-12-13----13-12-10-------------
g---11-10----------------------10-11-12----------------------------------
d---------12-11-10----10-11-12-------------------------------------------
a------------------12----------------------------------------------------
E------------------------------------------------------------------------

e------------------------------------------13-12-------------------------
b-------11-10---------------------12h14h15---------------12h14h15-15-14--
g-----12-------12-11-10-9------------------------------------------------
d-------------------------10-9-------------------------------------------
a------------------------------------------------------------------------
e------------------------------------------------------------------------

e------------------------------------------------------------------------
b------------------------------------------------------------------------
g-----------------11---11-11---------------------------------------------
d--------11h12h14--------------------------------------------------------
a------------------------------------------------------------------------
E------------------------------------------------------------------------

Last Verse: 

e------------------------------------------------------------------------
b------------------------------------------------------------------------
g------------------------------------------------------------------------
d------------------------------------------------------------------------
a---5-0-5-------5-0-5--------5-0-5-0---------5-0-5-----------5-0-5-------
E---------7-----------6----------------------------6----------------7----
     "if we don't take action now, we'll settle for nothing later"
     

e------------------------------------------------------------------------
b------------------------------------------------------------------------
g------------------------------------------------------------------------
d------------------------------------------------------------------------
a---5-0-5--------5-0-5-0---------5-0-5-----------------------------------
E---------6----------------------------6---------------------------------
 
  
play this  4x
e------------------------------------------------------------------------
b------------------------------------------------------------------------
g------------------------------------------------------------------------
d------------------------------------------------------------------------
a-----0--------------0--------------0------------------0-----------------
E---0---0-1-3-2~---0---0-1-3-2~---0---0-1-3-2~-------0---0-1-3-2~--------
  "IF WE DON'T                   WE'LL SETTLE
TAKE ACTION NOW,                FOR NOTHING LATER!"

Outro:

e------------------------------------------------------------------------
b------------------------------------------------------------------------
g------------------------------------------------------------------------
d------------------------------------------------------------------------
a---5-0-5--------5-0-5-------5-0-5-0------5-0-5--------------------------
E---------7------------6------------------------6------------------------
 
    HOPE YOU LIKED MY TAB! THANKS! P.S.(AGAIN) I LOVE RATM!!!
Comments