Rage Against The Machine - Settle For Nothing Chords & Tabs

 

Settle For Nothing Chords & Tabs

Rage Against The Machine Chords & Tabs

Version: 2 Type: Tab 0 ratings
1 star 2 stars 3 stars 4 stars 5 stars
comments

Settle For Nothing Tab

|---------------------------------------------------------------------------------------|
|---------------------------------------------------------------------------------------|
|---------------------------------------------------------------------------------------|
|--0--------0-------------0---------0---------0---------0---------0--------0------|
|-------------------2----------------------1-------------------0------------------1--|
|-------0-----------------------0--------------------0-------------------0-----------|

repeat and then


|--------------------------------------------------------------|
|--------------------------------------------------------------|
|--------------------------------------------------------------|
|--------------------------------------------------------------|
|--------0----------------------------------------------------|
|---2--------2----3---5--4---------------------------------|

[ Tab from: http://www.guitartabs.cc/tabs/r/rage_against_the_machine/settle_for_nothing_tab_ver_2.html ]
Comments