Rage Against The Machine - Roll Right Chords & Tabs

 

Roll Right Chords & Tabs

Rage Against The Machine Chords & Tabs

Version: 3 Type: Tab 0 ratings
1 star 2 stars 3 stars 4 stars 5 stars
comments

Roll Right Tab

   
Standard Tuning
legend
p=pull off
t=tap on
* before a fret=descend 1 1/2 steps with whammy pedal
* after a fret=ascend back up 1 1/2 steps with whammy pedal
t.s.=toggle switch
- when referring to wah wah means gradually closing the pedal

Intro/Chorus
e----------------------------------------(misc.feedback)
B----------------------------------------(misc.feedback)
G----------------------------------------(misc.feedback)  4 times  
D-----11p0-9p0---------------------------(misc.feedback)     
A--------------11p0-10p0-9p0-7p0---------(misc.feedback)
E-9p0----------------------------7p0-7-9-(misc.feedback)
(gtr.2 comes in on 3rd time with whammy pedal set to one octave lower)

t.s.-----------------------------------------------
e-------------|----------------|-------------------
B-10----------|*10----------10*|--------*10--------
G-------------|----------------|-------------------
D-------------|----------------|-------------------
A-------------|----------------|-------------------
E-------------|----------------|-------------------
(everything inside of the lines(| |) is repeated 3 times and you have to listen
to cd for toggle switch rhythm)

part on 2nd Verse w/wah wah
  +  o + + o + + o + + o + + o + + o + + o + + o + + o +
e-------------------------------------------------------
B-------------------------------------------------------
G-1-----------------------------------------------------    2 times
D-2--x-x-x-x-x-x-x-x-x-x-x-x-x-x-x-x-x-x-x-x-x-x-x-x-x-x    
A-2-----------------------------------------------------
E-------------------------------------------------------
+=closed(toe down)
o=open(toe up)
[ Tab from: http://www.guitartabs.cc/tabs/r/rage_against_the_machine/roll_right_tab_ver_3.html ]
Bridge w/wah wah
t.s.-----------------------------------------------------------------------
  o----------------------------------------------+++++++++++++++++++++++++
e-------------------------------------------------------------------------
B-------------------------------------------------------------------------
G-3-(3)-(3)-(3)-(3)-(3)-(3)-(3)-(3)-(3)-(3)-(3)-(3)-(3)-(3)-(3)-(3)-(3)-(3)
A-------------------------------------------------------------------------
E-------------------------------------------------------------------------
  ++++++++++++++++++++o----------------------------------------------+++++
e--------------------------------------------------------------------------
B--------------------------------------------------------------------------
G-(3)-(3)-(3)-(3)-(3)p2-(2)-(2)-(2)-(2)-(2)-(2)-(2)-(2)-(2)-(2)-(2)-(2)-(2)
D--------------------------------------------------------------------------
A--------------------------------------------------------------------------
E--------------------------------------------------------------------------
  ++++++++++++++++++++++++++++++++++++++++++++o----------------------------
e--------------------------------------------------------------------------
B--------------------------------------------------------------------------
G-(2)-(2)-(2)-(2)-(2)-(2)-(2)-(2)-(2)-(2)-(2)p1-(1)-(1)-(1)-(1)-(1)-(1)-(1)
D--------------------------------------------------------------------------
A--------------------------------------------------------------------------
E--------------------------------------------------------------------------
  -----------------+++++++++++++++++++++++++++++++++++++++++++++++o--------
e--------------------------------------------------------------------------
B--------------------------------------------------------------------------
G-(1)-(1)-(1)-(1)-(1)-(1)-(1)-(1)-(1)-(1)-(1)-(1)-(1)-(1)-(1)-(1)p0-(0)-(0)
D--------------------------------------------------------------------------
A--------------------------------------------------------------------------
E--------------------------------------------------------------------------
  -------------------------------------++++++++++++++++++++++++++++++++++
e------------------------------------------------------------------------
B------------------------------------------------------------------------
G-(0)-(0)-(0)-(0)-(0)-(0)-(0)-(0)-(0)-(0)-(0)-(0)-(0)-(0)-(0)-(0)-(0)-(0)
D------------------------------------------------------------------------
A------------------------------------------------------------------------
E------------------------------------------------------------------------
  +++++++++++
e------------
B------------
G-(0)-(0)-(0)
D------------
A------------
E------------

Solo w/digital delay set for 179 millisecond regeneration with one repeat
           delay----------------------------------------------------------
e-0------------------------------t16--------------------------------------
B-0------------------t19--------------------------------------------------
G-0--------------------------------------t18-t20-----t19------------------
D-0--------------t19-----t19-t18-----t18----------------------------t19---
A-0----------------------------------------------t18-----t17----t17-------
E-0-----------------------------------------------------------------------
          delay-----------------------------------------------------------
e-0-----------------------------------------------------------------------
B-0------------------------------------------------------------t16-t17----
G-0--------------------t18----t18----t19----------------------------------
D-0----------------t16------------------t17------------t18----------------
A-0------------t16--------t16----t16-------t18-----t20-----t16---------t15
E-0--------------------------------------------t17------------------------
         delay------------------------------------------------------------
e-0-----------------------------------------------------------------------
B-0----------------------------------------------------------t17----------
G-0-------------------t18-----t18-------------t17-------------------------
D-0---------------t21-----t16-------------t18-----t15----t15-----t17------
A-0-----------t19-----------------t15-t14---------------------------------
E-0-----------------------------------------------------------------------
         delay-----------------------------------------------
e-0-------------------t15-----t16-----t17-----t17---------------0
B-0-----------t16-----------------t16-----------------t18-t16---0
G-0-------------------------------------------------------------0
D-0---------------t15-----t15-------------t16-----t16-----------0
A-0--------------------------------------------------------------
E-0--------------------------------------------------------------

Interludew/wah wah
  o--------------------+
e------------------------
B------------------------
G------------------------
D------------------------
A------------------------
E-0-0-0-0-0-0-0-0-0-0-0-0

Outro
e----------------
B----------------
G----------------
D----------------
A-----5h7------/5
E-0-------3-0----

Ending notes
e-------------------------
B-------------------------
G------------------------0
D------------------------0
A------------------------0
E-0----------------------0

There you go.I had not seen any full tabs for this song so i tabbed it.
I hope you like it(because that solo was a real pain.)
Comments