Rage Against The Machine - Revolver Chords & Tabs

 

Revolver Chords & Tabs

Rage Against The Machine Chords & Tabs

Version: 4 Type: Tab 0 ratings
1 star 2 stars 3 stars 4 stars 5 stars
comments

Revolver Tab

   
Person: steve

song: revolver

artist: rage against the machine

tab: i just got a slide and i was playing around and i did something
that sounded like revolver. so i tried it out and it sounded good. here
is the tab.

tunind:(D,A,D,G,B,E)

intro: just ply around with the slide, if you have one. if you don't,
then you don't really need to play the intro. at the beginning slide on
the e and a strings,  then when it gets higher, just stay on the high
eand keep the slide way down by the bridge. near the end, start at the
end of the high e and slide dow to the other end.

riff 1:

e----------------------------------------------------------
b----------------------------------------------------------
g----------------------------------------------------------
d---------------------3------------------------------------
a-3-4-5-------3-5-3-5-----3-4-5-------2-5-2-5-----3-4-5----
d-------0-3-5-------------------0-3-5---------0---------0-3

e---------------------------------------
b---------------------------------------
g---------------------------------------
d-----------3-4-3-----------------------
a---3-5-3-5-------3-4-5-------2-5-2-5---
d-5---------------------0-3-5---------0-

then:(this may not be right, but it sounds good)

e---------------------
b---------------------
g---------------------
d-3-----3-----3-----3-
a-3-----3-----3-----3-
d-3-----3-----3-----3-

verse:(use the slide on this part it sounds better)
[ Tab from: http://www.guitartabs.cc/tabs/r/rage_against_the_machine/revolver_tab_ver_4.html ]
e---------------------------
b---------------------------
g-----5-6-5---8-8-8-8-8-8-8-
d---------------------------
a---------------------------
d-0-let ring----------------

between verse and chorus:

e-----------------
b-----------------
G-5-5-5-5-5-5-5-5-
d-----------------
a-----------------
d-----------------

chorus:

e-----------------------------------
b-----------------------------------
g-----------------------------------
d---------3-------3-------3---------
a-5---3-5-----3-5-----3-5---------3-
d---0-------0-------0-------0-3-5---

in the middle after second chorus: mute all strings and just pick
around, it'll sound cool enough.

solo:

e-----------------------------------------------------------
b-9/10-10-10-10---9/10-10-10-10---9/10-10-10-10---9/10-10-10
g-----------------------------------------------------------
d-----------------------------------------------------------
a-----------------------------------------------------------
d-----------------------------------------------------------

e-------13---10-------13---10-------13---10------17-17-17-17
b-10------------10-10---------10-10---------10--------------
g-----------------------------------------------------------
d----12-----------------------------------------------------
a-----------------------------------------------------------
d-----------------------------------------------------------

e-17-17-17---
b-17-17-17---
g------------
d------------
a------------
d----------0-

slow part:

just strum these chords

e-----------------------
b-----------------------
g-10-----10-----7-----2-
d-10-----10-----7-----0-
a--8------8-----5-----0-
d--0------0-----0-----0-

then do the chorus for the rest of the song and that's it. it's a
really cool song and it's preety easy. ann questions,
email me at phishstiks@aol.com

Comments