Rage Against The Machine - Revolver Chords & Tabs

 

Revolver Chords & Tabs

Rage Against The Machine Chords & Tabs

Version: 3 Type: Tab 1 rating
1 star 2 stars 3 stars 4 stars 5 stars
comments

Revolver Tab

#----------------------------------PLEASE NOTE--------------------------------#
#This file is the author's own work and represents their interpretation of the#
#song. You may only use this file for private study, scholarship, or research.#
#-----------------------------------------------------------------------------#
#-- File created with Instab - http://www.pconline.com/~smcarey/instab.html --#
#-----------------------------------------------------------------------------#

rage against the machine:revolver
by: onseph whitemarke

key:
3b = bend slightly
3br = bend and then release bend
17bbbb = bend alot

i noticed some small things wrong and missing in the other revolver tabs
so i tried to get everythign right in this one

the intro: sorry kids, unless your tom morello you can't get this down
perfectly, what i do is turn on heavy delay and turn my toggle switch
to all treble and tap my slide on the strings over the pickups
it gets a cool sound...cool sound

--0--
--0--
--0--
--0--
-----
-----

------------------------------------------------
------------------------------------------------
------------------------------------------------
---------------------3b------------------------- X2
-3h4-5-------3-5p3-5-----3h4-5-------3-5-2-5----
-------0-3-5-------------------0-3-5---------0--
                                                                              

--------------------------------------
-6br----------------6br---------------
-5br----------------5br---------------
-0--------------3b--0----------------- X2
--------3-5p3-5------------3-5-2-5----
----3-5----------------3-5---------0--
                                                                              

-------------------------------     ------------------
-------------------------------     ------------------
-------------------------------     ------------------
---10br-----12-12-12-12-12-12-- X3  ------10br-------- X1
-----------12------------------     -------------12---
-0-----------------------------     ----0-------------
|______________________________________________________| do this X3
                                                                              

--------  ----------------  ----------------
--------  ---18-------18--  ----------------
-17-17--  ---17-17-17-17--  --17bbbbb-------
--x--x--  ----x--x--x--x--  ---x------------
-15-15--  ---15-15-15-15--  --15bbbbb-------
--------  ----------------  ----------------
[ Tab from: http://www.guitartabs.cc/tabs/r/rage_against_the_machine/revolver_tab_ver_3.html ]
the timing isnt exact here (obviously), play the first chord over and over
and add in the 2nd pattern where it feels right, end with the first chord
but play while bending

-----------------------------------
-----------------------------------
-----------------------------------
---------3-------3-------3--------- X4
-5---3h5-----3h5-----3h5----3h5-3--
---0-------0-------0-------0-------

------------------------------------------------
------------------------------------------------
------------------------------------------------
---------------------3b------------------------- X2
-3h4-5-------3-5p3-5-----3h4-5-------3-5-2-5----
-------0-3-5-------------------0-3-5---------0--

-------------------------------     ------------------
-------------------------------     ------------------
-------------------------------     ------------------
---10br-----12-12-12-12-12-12-- X3  ------10br-------- X1
-----------12------------------     -------------12---
-0-----------------------------     ----0-------------
|______________________________________________________| do this X3

--------  ----------------  ----------------
--------  ---18-------18--  ----------------
-17-17--  ---17-17-17-17--  --17bbbbb-------
--x--x--  ----x--x--x--x--  ---x------------
-15-15--  ---15-15-15-15--  --15bbbbb-------
--------  ----------------  ----------------

-----------------------------------
-----------------------------------
-----------------------------------
---------3-------3-------3--------- X8
-5---3h5-----3h5-----3h5----3h5-3--
---0-------0-------0-------0-------

the trick here is to turn on delay so that it makes the same note you make
about 10 or so milliseconds after you do, than just hit dead notes and on 
whatever string sounds best to you

--------    --------------------------------     --17----
-10-----    ----18------15-----10----10-----     --20b23-
-12b14--    ----20b22---17b19--12b14-12b14--     --------
-------- X8 -------------------------------- X3  -------- X8
--------    --------------------------------     --------
--------    --------------------------------     --------

----------0--
-6--6--2--2--
-5--5--3--3--
-x--3--0--0--
-3--3--0--0--
----------0--

-----------------------------------
-----------------------------------
-----------------------------------
---------3-------3-------3--------- X12
-5---3h5-----3h5-----3h5----3h5-3--
---0-------0-------0-------0-------

                                                                              

Comments