Rage Against The Machine - Revolver Chords & Tabs

 

Revolver Chords & Tabs

Rage Against The Machine Chords & Tabs

Version: 3 Type: Bass Tab 0 ratings
1 star 2 stars 3 stars 4 stars 5 stars
comments

Revolver Bass Tab

   
Rage Against The Machine - Revolver

Tabbed By Stephen Pang (piequat@hotmail.com)

* Dropped D Tuning *

Pre-Verse
G|---------------------------|---------------------------|
D|------------------------3--|---------------------------|
A|-3-4-5---------3--5-3-5----|-3-4-5---------3--5-2-5----|
D|-------0-3--5--------------|-------0-3--5-----------0--|
[ Tab from: http://www.guitartabs.cc/tabs/r/rage_against_the_machine/revolver_btab_ver_3.html ]
G|-------------------------------|---------------------------|
D|------------------------3h4p3--|---------------------------|
A|-3-4-5---------3--5-3-5--------|-3-4-5---------3--5-2-5----|
D|-------0-3--5------------------|-------0-3--5-----------0--|

Verse
G|-----|
D|-----|
A|-----|
D|--0--|

Pre-Chorus
G|---------------------------------------|
D|---------------------------------------|
A|-5-------------------------------------|
D|---0-3h5-0--0-3h5-0--0-3h5-0--0-3h5-0--|

G|---------|
D|---------|
A|-5-5-5-5-|
D|---------|

Chorus
G|--------------------------------------|
D|---------3--------3--------3----------|
A|-5---3h5------3h5------3h5----------3-|
D|---0--------0--------0--------0-3h5---|
Comments