Rage Against The Machine - Revolver Chords & Tabs

 

Revolver Chords & Tabs

Rage Against The Machine Chords & Tabs

Version: 2 Type: Bass Tab 0 ratings
1 star 2 stars 3 stars 4 stars 5 stars
comments

Revolver Bass Tab

Band:  Rage against the Machine	
Song:  Revolver
CD:    Evil Empire
                                        (by specter@tir.com)

Blah blah blah umm, lemme think....umm, dropped-D tunning. thats pretty much
all..If it don't sound right...just wine and fix it your own damn self!


**Kool Guitar Effects Opening**

BASS FIG 1a
G:---------------------------------------------------------|
D:--------------------------3------------------------------|
A:--3-4-5----------3--5-3-5-----3-4-5----------3--5-3-5----|
E:--------0--3--5---------------------0--3--5-----------0--|


BASS FIG 1b
G:--------------------------------------------------------------|
D:---------------------------3h4p3------------------------------|
A:--3-4-5----------3--5-3-5--------3-4-5----------3--5-3-5------|
E:--------0--3--5------------------------0--3--5-----------0----|


G:----------------------------------------------------------|
D:---------------------------3------------------------------|
A:--3-4-5----------3--5-3-5-----3-4-5----------3--5-3-5-----|
E:--------0--3--5---------------------0--3--5-----------0---|


G:--------------------------------------------------------|
D:--------------------------3-----------------------------|
A:--3-4-5----------3--5-3-5-----3-4-5----------3--5-3-5---|
E:--------0--3--5---------------------0--3--5-----------0-|

grad> bend string up and (x3)
incr volume
(BASS FIG. 2)
G:------------------------19-19-19-19-19-19-19-19-19----|
D:*----------------------------------------------------*|
A:*----------------------------------------------------*|
E:---0--------------------(0)---------------------------|
*let D note ring

[ Tab from: http://www.guitartabs.cc/tabs/r/rage_against_the_machine/revolver_btab_ver_2.html ]
(end fig. 2)
G:------------------10---12---14-----|--------------|
D:-----------------------------------|--fig-2-(x2)--|
A:-----------------------------------|--------------|
E:--0---------------(0)--------------|--------------|


Bridge (x4)  Fill 1
G:-----------------------------------------|--------------|
D:*---------------------------------------*|--------------|
A:*-5-------------------------------------*|-5--5-5-5--5--|
E:----0--3h5-0--0-3h5-0--0-3h5-0--0-3h5-0--|--------------|


1, 2, 3  4.
Chorus
G:----------------------------------------|-----------|---------|---------|
D:*----------3-------3-------3-----------*|-(3)-rest--|-fig-1a--|-fig-1b--|
A:*--5-0-3h5---0-3h5---0-3h5-------------*|-----------|---------|---------|
E:-----------------------------0-3h5------|-----------|---------|---------|

G:--------------|---------------|----------|---------------|--------------|
D:--Fig-2-(x3)--|--Bridge-(x4)--|--Fill-1--|--Chorus-(x8)--|--Fig-1a-(x3)-|
A:--------------|---------------|----------|---------------|-w/distortion-|
E:--------------|---------------|----------|---------------|--------------|

G:----------------------------------------------------------|
D:--------------------------3-------------------------------|
A:--3-4-5----------3--5-3-5-----3-4-5---3-4-5--3--5-3-5-----|
E:--------0--3--5---------------------0-----------------0---|

 (x3)
G:---------------------|--------------|----------------|
D:---------------------|-Bass-Fill-1--|--Chorus-(x8)---|
A:---------------------|--------------|--w/-distortion-|
E:--0------------------|--------------|----------------|


Ohh wow, Thats a pretty kool song, ohh well I'm sure you wouldn't read anything else
i put up here so ohh well....umm i did both these tabs on a fricken note pad cuz i am
bored off of my ass....blah blah blah this song is kool...well enjoy my contribution.
Comments