Rage Against The Machine - Renegades Of Funk Chords & Tabs

 

Renegades Of Funk Chords & Tabs

Rage Against The Machine Chords & Tabs

Version: 2 Type: Bass Tab 0 ratings
1 star 2 stars 3 stars 4 stars 5 stars
comments

Renegades Of Funk Bass Tab

Renegades of funk


Tabbed By: Taz
E-mail: tazg_11@hotmail.com

Into done by guitar and drums

Verse

G|---------------------------------|
D|---------------------------------|
A|---------------------------------|   x3
E|--3h5--0-3h5--0-3h5--0-0h3----|

Chorus

G|---------------------------------|
D|---------------------------------|
A|---------------------------------|   x2
E|--3h5--0----0------5h3--0---0----|

Verse

G|---------------------------------|
D|---------------------------------|
A|---------------------------------|   x2
E|--3h5--0-3h5--0-3h5--0-0h3----|

Bit between the Verses

G|---------------------------------|
D|---------------------------------|
A|---------------------------------|   x2
E|--00000000--00000000-------------|

Verse
[ Tab from: http://www.guitartabs.cc/tabs/r/rage_against_the_machine/renegades_of_funk_btab_ver_2.html ]
G|---------------------------------|
D|---------------------------------|
A|---------------------------------|   x2
E|--3h5--0-3h5--0-3h5--0-0h3----|

Chorus

G|---------------------------------|
D|---------------------------------|
A|---------------------------------|   x2
E|--3h5--0----0------5h3--0---0----|

Pause for a while then play

Verse

G|---------------------------------|
D|---------------------------------|
A|---------------------------------|   x2
E|--3h5--0-3h5--0-3h5--0-0h3----|


Then play

G|---------------------------------|
D|---------------------------------|
A|---------------------------------|   x1
E|--3h5------------3h5-------------|

Pause for a while then play

Verse

G|---------------------------------|
D|---------------------------------|
A|---------------------------------|   Play till the end
E|--3h5--0-3h5--0-3h5--0-0h3----|
Comments