Rage Against The Machine - Renegades Of Funk Chords & Tabs

 

Renegades Of Funk Chords & Tabs

Rage Against The Machine Chords & Tabs

Version: 1 Type: Bass Tab 0 ratings
1 star 2 stars 3 stars 4 stars 5 stars
comments

Renegades Of Funk Bass Tab

Song: Renegades of Funk
Artist: Rage Against the Machine
Album: Renegades
Tabbed by: Sam Sproull (theholymule@hotmail.com)
Date: 2000-12-26

This is my first tab, so please go easy on it,
it isn't perfect but it is noticeable
improvement over Jonas Marksell. Please
also e-mail any further improvements to me (see above).

Dropped D tuning
Enter song at 16 seconds.

Chorus and song beginning
G:------------------------------------I
D:------------------------------------I
A:-5-----------------5----------------I
D:----5--3----3--------5--0----0------I

Verse
G:------------------------------------I
D:------------------------------------I
A:-3-h5------3-h5------3-h5-----------I
D:------0---------0---------0--3-h5---I
[ Tab from: http://www.guitartabs.cc/tabs/r/rage_against_the_machine/renegades_of_funk_btab.html ]
Bridge 1 (not perfect, I cant seem to find the right note either)
" A civil nation, and revelations..."
G:------------------------------------I
D:------------------------------------I
A:-5--------------------5-------------I
D:---0-------0------------0-------0---I

Bridge 2
"Every time we're pumping to the beat we get fresh..."
G:------------------------------------I
D:------------------------------------I
A:-5---7-------------------5---7------I
D:------------------------------------I

Last verse
Say jam sucka, say groove sucka
G:------------------------------------I
D:------------------------------------I
A:-3-h5------3-h5------3-h5-----------I
D:------0---------0---------0--3-h5---I

G:------------------------------------I
D:------------------------------------I
A:-3-5------7-5------3-5--------------I
D:------0---------0---------0--3-5----I
Comments