Rage Against The Machine - Renegades Chords & Tabs

 

Renegades Chords & Tabs

Rage Against The Machine Chords & Tabs

Version: 1 Type: Bass Tab 0 ratings
1 star 2 stars 3 stars 4 stars 5 stars
comments

Renegades Bass Tab

   
RAGE AGAINST THE MACHINE- RENEGADES

Okay.. I was just muckin around on the bass one day and managed to play microphone fiend
and it sounded RIGHT!! so heres what Ive worked out
Hammer: H
Slide: /
MICROPHONE FIEND:
Drum opening                Verse

-------------------      -------------------|
-------------------      -------------------|
-------------------      -------------------|
-------------------      --2-2-0-2/5--------|

            CHORUS:
---------------------      ----------------------|
---------------------      ----------------------|
---------------------      ---------------7------|
-5---5---5-5-5-5-----      -2------0h20h5---2020-|
                             rpt: 3

Verse: x12

Chorus: x4

BRIDGE: x4  Part 1                             Part 2: x6
----------------------------------------   ------------------------------|
----------------------------------------   ------------------------------|
----------------------------------------   ------------------------------|
-0h2-0h5--0h2-0h5--0h2-0h5-0-2-0-2-0----   -3/2---01h2-------------------|

Just 3 like 30 times or something
----------------------------------------|
----------------------------------------|
----------------------------------------|
--3-3-3-3-3-3-3-3-3-3-3-3-3-3-3-3-------|

then back to Bridge part 2 a few times

Chorus: x 4

Bridge: Part 1 to finish

PISTOL GRIP PUMP:
There isnt much to this song

-----------------------|
-----------------------|
-----------------------|
--2/5-0-0--------------|

thats is thats verse and chorus

KICK OUT THE JAMS
Intro
-------------|
-------------|
-------------|
-555-7-------|

WE GOTTA KICK EM OUT!!
Verse: x 12                    then this: 2x
----------------           ---------------------------------|
------5-7-7-7-5-           -------5/12-12-12-----5/14-14-14-|
--7-7-----------           ---7-7------------7-7------------|
----------------           ---------------------------------|

Chorus:
-----------     ----------------|
-----------     ----------------|
-----------     --5-7-5-5-5-5-5-|
--5-5-5-7--     ----------------|
then back to Verse
then Chorus
then back to verse
then Chrous to End

RENEGADES OF FUNK
Intro
---------------|
---------------|
--5------5-----|
----5-3----5-0-|

VERSE:
-------------------------|
-------------------------|
--3h5---3h5---3h5--------|
-------0-----0----0--3-5-|

CHORUS:
---------------|
---------------|
--5------5-----|
----5-3----5-0-|

Verse to bridge which is

just this a bunch of times
-----------------|
-----------------|
----5------------|
-------0---------|

back to verse
then to chorus
then theres a bit with out the bass
then back to verse
to chorus to end

BEAUTIFUL WORLD
Sorry to disapoint you but beautiful world has no bass in it

IM HOUSIN:
Verse
----------------------|
----------------------|
-7/10-7-6-5-2-1-------|
----------------3h5-0-|
Just that a few times till chorus

CUZ IM HOUSIN
-----------------|
--2-2------------| 4x
-----------------|
--0-0------------|

---------------------|
--2----2---2---2---5-| 4x
---------------------|
-----0---0---0---0---|

CHORUS:
------------------------|
--2-2----0--------------| 7x
------0h2--2-0----------|
---------------3--------|

Back to verse
to chorus again

then back to this a bunch of times
---------------------|
--2----2---2---2---5-|
---------------------|
-----0---0---0---0---|
to chorus then to

-----------------|
--2-2------------| 4x
-----------------|
--0-0------------|
to end

IN MY EYES
drum opening then
[ Tab from: http://www.guitartabs.cc/tabs/r/rage_against_the_machine/renegades_btab.html ]
Intro
----------------|
----------------|
--765-0-567--7--| rpt a bunch of times
----------------|

Verse:
---------------------------------------|
---------------------------------------| rpt heaps
-3----6---8----------------------------|
---5----6---8--3333333333333333--------|

CHORUS:
-------------------------      ------------------------------------------|
------------------------- 4x   ------------------------------------------| rpt 3 times
------5-5----5-5---------      ------------5--5--5-----------------------| then
---7-------7------555-777      --00000000---------------------  ---------|
                                                                ---------|
                                                                ---------|
                                                                --3------|
back to verse
to chorus to end

HOW I COULD JUST KILL A MAN
Verse 1

Just guitar at start

G |------------|x 12
D |------------|
A |------------|
D |7\3-3-5-3-0-|


Chorus (Riff 2)

G |-------------------|x4
D |-------------------|
A |-----------3-------|
D |3/10-0-3-5---00000-|

Verse 2 X 10

Interlude


G |---------|x 4
D |---------|
A |0-0-0-0-0|
D | --------|

Verse 2 cont.
Chorus - Riff 2

Bridge

G |-------------|	(play 8x)
D |-------------|
A |3------03----|
D |--53535----0-|

Sorry guys I dont know that one very well

DOWN ON THE STREET
Verse
G|-------------------------------------------------------------|
D|--------------7-7-5------------------------------------------|
A|7-7-5-7-x-x-x-------7-x-x-x-7-7-5-7-x-x-x---------7----------|
E|------------------------------------------0-3-5-3------------|

Chorus
G|-------------------------------------------------------------|
D|--------------------------------------7-7-5-7-5--------------|
A|7-7-5--------7-7-5--------7-7-5-----------------5-7----------|
E|------5-5-3--------3-3-5--------3-5-5------------------------|

very simple that one

and now for one of my favs on Renegades

STREET FIGHTING MAN

Guitar intro

Verse
------------------|
------------------| x heaps
------------------|
-0000-10-0000-8---|

G|--------------------------    ---------------------------------------------|
D|--------------------------    ---------12-12-12-10-10-10-------------------|
A|--------------------------    ---------------------------12-12-12-10-10-10-|
D|7----7---10-10-10-12-12-12    7----7---------------------------------------|

CHORUS:
Same as verse

MAGGIES FARM:
Guitar intro

Intro
-------------------------------------------------------------------|
------0--------0----2-----0--------0-------------------------------| x4
--2-2---222--2---22---2-2---222--02--2-0---------------------------|
-----------------------------------------2-0-----------------------|

Verse:
--------------------------------------------|
-------0-------0------2-----0---------------| do this all through verse
---2-2---222-2---222----2-2---222-----------|
--------------------------------------------|

-------------------------------------------|
-------------------------------------------|
--22-2-2-----------------------------------|
-------------------------------------------|

back to verse 4x

CHORUS:
------------------------------------------|
-----77777777-22222222--------------------|
------------------------22--2--2----------|
------------------------------------------|

back to verse
to chorus
to Interlude which is

-----------------------------|
-----------------------------|
--2-2-2-3-3-3-5-5-5-5-5------|
-----------------------------|
then to chorus then to the intro
but slow

Hope you guys enjoyed my tab and please rate it to what you think
Comments