Rage Against The Machine - Renegades Album Chords & Tabs

 

Renegades Album Chords & Tabs

Rage Against The Machine Chords & Tabs

Version: 1 Type: Tab 0 ratings
1 star 2 stars 3 stars 4 stars 5 stars
comments

Renegades Album Tab

   
#----------------------------------PLEASE NOTE---------------------------------# #
This file is the author's own work and represents their interpretation of the # #song. 
You may only use this file for private study, scholarship, or research.
# #------------------------------------------------------------------------------## 


Microphone Fiend
-------------------
Intro and verse:
(with wah at a 1/4 beat)
x |------------------                       |-------------------------------------------
x |------------------                       |-------------------------------------------
x |------------------(then later on)  |--------------------------------------------
x |4---4^----4------                      |------4-4-4-4-2-2-2-2--------------------
x |--0------0--------                      |------------------------4-4-4-4-2-2-2-2-2
x |-------------------                     |--------------------------------------------

Chorus:
x |-------------------
x |-------------------
x |-------------------
x |---------2-3-2-3/-
x |------0------------
x |0-2-0-------------

Bridge:
x |-------------------
x |-------------------
x |-------------------
x |-------------------
x |-------------------
x |2^-xx-x0h1h2xxxx

Pistol Grip Pump
-----------------
The whoel song is just the bass guitar, but suring the verse Tom Morello
comes in:

Drop D
x |-------
x |-------
x |-------
x |5^8-00
x |5^8-00
x |5^8-00

This is pretty much the whole song except for in the 
verse there is a faint sound of this:

x |--------------------
x |--------------------
x |--------------------
x |8v-----8v----8v----
x |--------------------
x |--------------------

Kick Out the Jams
-------------------
Drop D
Intro:
x |--------
x |--------
x |--------
x |7-7-7-8
x |7-7-7-8 let ring
x |7-7-7-8

Verse:
x |--------
x |--------
x |--------
x |--------
x |-------0
x |2-2-5--

Renegades of Funk
-------------------
Tom has a weird effect on this song but I think it goes like this:

Drop D
Intro:
x |0-0-0-0-1-1-1-1
x |-1-1-1-1-3-3-3-3
x |------------------
x |------------------
x |------------------
x |------------------

Chorus:
x |------------------
x |-------------------
x |-------------------
x |-----0-------0-3-5
x |3-5-0---3-5-0-3-5
x |-----0-------0-3-5

Beautiful World
----------------
The Whole Song:
x |------------------------------------
x |0-0-0-0-0-0-0-0-0-0-0-0-0-0-0-0
x |5-5-5-5-7-7-7-7-5-5-5-5-7-7-7-7
x |------------------------------------
x |------------------------------------
x |------------------------------------

Sometimes Morello playes a 4 instead of a five.

I'm Housin'
-----------
Drop D
Verse:
With wah
x |----------
x |----------
x |-0-------0
x |2--2-2-2-
x |----------
x |----------

Bridge:
x |---------
x |---------
x |----------
x |0h2------
x |0h2------
x |0h2------

Chorus:
x |-------------------
x |-------------------
x |-------------------
x |2-2-2p0--0--0----
x |---------2-----2p0
x |-------------------

In My Eyes
------------
Intro:
x |--------
x |--------
x |5------5
x |5------5
x |7------7
x |--------

Bridge:
x |----------------
x |----------------
x |------7---10-10
x |10-7-7-8-10-10
x |10-7-5-8-8---8
x |8--5----6------
[ Tab from: http://www.guitartabs.cc/tabs/r/rage_against_the_machine/renegades_album_tab.html ]
Chorus:
x |---------------------
x |---------------------
x |---7777--------4444
x |7777777777774444
x |7755557777772222
x |55------55555------

How I Could Just Kill A Man
------------------------------
Drop D
Verse:
x |----------------------------------
x |----------------------------------
x |----------------------------------
x |--------------------------3-3-3-3
x |3-5-3-5-5-5-5--3-5-3-5---------
x |----------------------------------

Chorus:
x |------------------------------------
x |------------------------------------
x |------------------------------------
x |0-3-0--3--5-0-0-0-0-3-3---3h5p3
x |------3-3--5-0-0-0-0-3-3---------
x |--------3--5-0-0-0-0-3-3---------

The Ghost of Tom Joad
------------------------
Drop D
Intro/Verse:
x |-----------------------
x |-----------------------
x |-----------------------
x |-----------------------
x |--5-3-0-------3---0-3
x |0-------5-3-0---5----

Verse:
Palm Mute
x |----------------
x |----------------
x |----------------
x |----------------
x |5--3---0-3-5---
x |-----5----------

On the last verse Morello plays this in the background:
x |------------------
x |------------------
x |------------------
x |------------------
x |5-3-5-3---3-3h5p
x |---------5--------

Down On The Street
---------------------
Verse:
x |----------------------------
x |----------------------------
x |-------------------3^4-3p-
x |2-2-0-2-x-x-x-x----------2
x |----------------------------
x |----------------------------

Chorus:
x |-------------------------------------------------
x |-------------------------------------------------
x |---------2-0----------2-0---------2-0-222220-
x |2-2-0-2-----2-2-0-2-----2-2-0-2--------------
x |-------------------------------------------------
x |-------------------------------------------------

Street Fighting Man
--------------------
Drop D
Verse:
x |---10^-
x |--------
x |--------
x |--------
x |--------
x |12-----

Bridge:
x |3-3-3-33-4-3-3-3-33-4-
x |3-3-3-33-4-3-3-3-33-4-
x |--------------------------
x |--------------------------
x |--------------------------
x |--------------------------

One verse has this part come in:
( ) = palm mute
x |--------------------
x |--------------------
x |--------------------
x |(0000)12/-(0000)10/
x |(0000)12/-(0000)10/
x |(0000)12/-(0000)10/

Maggie's Farm
---------------
In Maggie's Farm it sounds like it's in a lower tuning but I think that it's right.
Drop D
Intro:
x |13----13----13-----13----10----10-----10
x |---12----12-----12----12----12-----12----
x |---------------------------------------------
x |---------------------------------------------
x |---------------------------------------------
x |---------------------------------------------


Verse:
x |------------------------------------------------
x |------------------------------------------------
x |------------------------------------------------
x |---------------------------------------0-------
x |-----------------------------------0-2--2-0----
x |0-0-2p000-0h2p0-3-0-0-2p000-----------2p0

A few times during the verse he plays this:
x |------
x |4----2
x |5----3
x |------
x |------
x |------

And that's pretty much it.  All the weird sounds are totally up to 
you guys because I'm not gonna touch that with a ten foot pole.
E-mail me for comments or thanks at cyanmonkey@yahoo.com Thanks for
using my tab!
Sincerely,
Cyanmonkey

Comments