Rage Against The Machine - Rage Against The Machine Chords & Tabs

 

Rage Against The Machine Chords & Tabs

Rage Against The Machine Chords & Tabs

Version: 2 Type: Bass Tab

Rage Against The Machine Bass Tab

   
Album: Rage Against The Machine
Artist: Rage Against The Machine
Tabbed by: BassPlayer275

Questions, comments, corrections ---> jbilde@gmail.com


Track 1:

Title: Bombtrack
Artist: Rage Against The Machine
Tuning: EADG

  Intro pt1:        pt2:	    pt3:              pt4:
G|-----------------|---------------|-----------------|---------|
D|---2-0---0-------|---2-0---0-2-5-|---2-0---0-------|---------|
A|-------2---2-0---|-------2-------|-------2---2-----|---------|
E|-0-------------3-|-0-------------|-0-----------3-2-|-0-0-0-0-|

 Chorus:                               end1:   2:   3:
G|------------------------------------|-------|----|-------|
D|-----4-----------4-2------4---------|-6-5-4-|-6~-|-4-3-2-|
A|------------------------------------|-4-3-2-|-4~-|-2-1-0-|
E|-0-2----0-2--0-2------0-2----0-2--0-|-------|----|-------|

 Verse pt1:		    Verse pt2:
G|-------------------------|----------------------------|
D|-------------------------|---------------4-2----------|
A|-------------------------|-------------------4-3-2-0~-|
E|-2--2--0~--2-2--2--2--5b-|-2--2--0~--2-0--------------|

 Interlude pt1:
G|------------------------------------------------------------------|
D|------------------------------------------------------------------|
A|-------------------------------/7-7-7-7-7-7-7-7-7-7-7-7-7-7-7-----|
E|-0-0-0-0-0-0-0-0-0-0-0-0-0-0-0------------------------------------|

 Interlude pt2:
G|-----------------------------------------------------------------|
D|-----------------------------------------------------------------|
A|-----------------------------------------------------4-0-3-0-2-0-|
E|-2-0-2-0-5b--2-0-2-0-2--x-x-x-x--2-0-2-0-5b--2-0-2-0-------------|

Track 2:

Title: Killing In The Name
Artist: Rage Against the Machine
Tuning: Drop-D (DADG)

 Intro:
G|-------------------------|-------------|--------|
D|-------------------------|-------------|--------|
A|-------------------------|-------6-6-6-|-------6|
D|-0~~~~-0~~~~-0~~~~-0~~~~-|-0-0-0-------|-0-0-0--|

 Verse:  		 Variation:
G|----------------------|------------------5-6-7-10-|
D|--------3h4-----------|--------3h4-5-6-7----------|
A|---3-5------5---------|---3-5---------------------|
D|-0------------0-0/3-2-|-0-------------------------|

 Chorus:                         End1:       End2:
G|-------x4--------x3--------x2-|-----------|-----------------|
D|------------------------------|-----------|-----------------|
A|---3-5-------3-5-------3-5----|-----------|-3-3-3-3-3-3-3-3-|
D|-0---------0---------0--------|-0-/3-/3-2-|-----------------|

 Bridge:                                                   Fill:
G|---------|---------|-----------------|-----------------||-----------------|
D|---------|---------|-----------------|-----------------||-----------2-3-5-|
A|-5-5---5-|-5-5-x-5-|-555-555-555-555-|-5-5--5--5-----3-||-5-5--5--5-------|
D|---------|---------|-----------------|-----------3-5---||-----------------|

  Outro build up:	    Outro:	      End:
G|-------------------------|-----------------|-------------|
D|-------------------------|-----------------|-------------|
A|-55555555555555555555555-|-5-5--5--5-----3-|-------6-6-6-|
D|-------------------------|-----------3-5---|-0-0-0-------|

Track 3:

Title: Take The Power Back
Artist: Rage Against the Machine
Tuning: Drop-D (DADG)

 Intro:
G|------||------------------------|------|
D|------||------------3---------3-|------|
A|------||------3h5-x---5p3h5-x---|------|
D|-0--0-||-0--0-------------------|-0--0-|

 Verse:
G|--------------------------||----------------------||------------|
D|o------------3---------3-o||------------3---------||------------|
A|o------3h5-x---5p3h5-x---o||------3h5-x---5-3-4-5-||------3h5-5-|
D|--0--0--------------------||-0--0-----------------||-0--0-------|

 Chorus:
G|---------------------||------------|
D|---------------------||------------|
A|---5-----3-4-5-------||---5-----3--|
D|-0-----0--------0--0-||-0-----0----|

 Verse Variations:
G|------------------------5-5h7-||----------------------|
D|------------3h5-x-5h7-x-------||------------3h5-x-x-x-|
A|------3h5-x-------------------||------3h5-x-----------|
D|-0--0-------------------------||-0--0-----------------|

G|------------------------||----------------5---|
D|------------------------||------------5-7-----|
A|------x--x--5--3--x-21-||------5-x-5----------|
D|-0--0-------------------||-0--0---------------|

 PreBridge:		 Bridge:
G|----------------------|----------------|
D|----------------------|----------------|
A|------x-x-x-x-x-x-x-x-|-5--4--3------3-|
D|-0--0-----------------|----------3-5---|

 Interlude:
G|-----5-||-----------------------------------------------|
D|---2---||-----------------------------------------------|
A|-3-----||-5-4-3-x-x--5-4-3-x-x--5-4-3--3--3h5-3h5-3h5-3-|
D|-------||-----------------------------------------------|

 End:
G|--------------|
D|--------------|
A|-5-------5----|
D|--------------|

Track 4:

Title: Settle For Nothing
Artist: Rage Against the Machine
Tuning: EADG

 Main Riff: (with phaser)
G|--7---7----7---7----7---7----7---7----|
D|o---0---9----0---8----0---7----0---8-o|
A|o------------------------------------o|
E|--------------------------------------|

 Chorus: (with distortion, no phaser)
G|------------------||---------------------|
D|------------------||-------------------4-|
A|------------------||---------------------|
E|-0--5--0--1--3--2-||-0--5--0--1--3--2----|

Track 5:

Title: Bullet In The Head
Artist: Rage Against The Machine
Tuning: EADG

 Intro:		        Verse:
G|------------------7-||------------------7-|
D|------------------6-||------------------6-|
A|-7--7----7-7-7------||-7--7----7-7-7------|
E|----------------0---||----------------0---|

 Verse Variations:
G|------------------6^-||---------------------7h9-|
D|------------------5^-||-----------------7h9-----|
A|-7--7----7-7-7-------||-7--7----7-7-7-x---------|
E|----------------0----||-------------------------|
			  Chorus:
G|-----------------x-7-||---------||---------------|
D|-----------------x-6-||---------||---------------|
A|-7--7----7-7-7--------||---------||--------------|
E|---------------0------||-0--3--5-||-7--3--5--0---|

  Interlude:			     Outro:
G|---------------------------------||---------------------|
D|---------------------------------||---------------------|
A|-7-7-7-7-7-5---------------------||-7-7--7-7------------|
E|-------------5-6-5-0-3-5-3-0-0-0-||-----------0-0-0-0-0-|

 End:
G|--------------------------------------|
D|--------------------------------------|
A|-7-7-7-7-7-7-7-7-7-7-7-7-7-7-7-7-7----|
E|--------------------------------------|

Track 6:

Title: Know Your Enemy
Artist: Rage Against The Machine
Tuning: EADG
[ Tab from: http://www.guitartabs.cc/tabs/r/rage_against_the_machine/rage_against_the_machine_btab_ver_2.html ]
 Intro:			  PreVerse end2:
G|-----||-------------4-||-----------------|
D|-----||-------------2-||--(6)-(4)-(2)----| (during guitar solo)
A|-----||---------x-x---||-x-4-x-2-x-0--(2)|
E|--2--||-2--0-2--------||-------------x-0-|

 PreVerse:		 PreVerse end1:
G|---------------------||-------------------|
D|---------------------||-------------------|
A|---------------------||-------------3-2-0-|
E|-0h2--2-2--0-5-2-0-2-||-0h2--2-2--0-------|

 Verse:
G|--------------------|--------------------|
D|-4--------------2-3-|-4------------------|
A|--------0-2-3-4-----|--------0-2-3-2-0---|
E|--2-0-2-------------|--2-0-2-----------2-|

 Interlude:
G|---------------------------------2-|
D|---------------------------------2-|
A|-----------------------------------|
E|-2-2-2---0-0-2-2-2---0-0-2-2-2-----|

G|-----------------------------------------|
D|-----------------------------------------|
A|---------------------------------3--2----|
E|-2-2-2---0-0-2-2-2---0-0-2-2-2---------1-|

 OUtro: (same as verse, but heavier w/ distortion)
G|--------------------|--------------------|
D|-4--------------2-3-|-4------------------|
A|--------0-2-3-4-----|--------0-2-3-2-0---|
E|--2-0-2-------------|--2-0-2-----------2-|

Track 7:

Title: Wake Up
Artist: Rage Against The Machine
Tuning: Drop-D (DADG)

 Intro:
G|-----------------------------|
D|-----------------------------|
A|-----------------------------|
D|-0-0-0-0--0-0-0-0-0--0-0-0-0-|

 Breakdown/Chorus part 1:	 part 2:
G|-----------------------------||-------------------------------|
D|-----------------------------||-------------------------------|
A|--------3----2h3-------------||--------3----5h7---7h8---8h10--|
D|-0--0-0----0-----0-3h5-0-3p2-||-0--0-0----0-----0-----0-------|

 Verse:			 Verse Variations:
G|---------------------||--------------------------------|
D|------3----5---------||---------------7-7-5---5--------|
A|-3-5----5----3--3--4-||-3-5--5-5-5--5-------7---7-5----|
D|---------------------||--------------------------------|

G|----------------------------||-------------------------------|
D|------3-3-5--5-5-7--3-3-5---||----------3--5-5-7-7-3-3-5-----|
A|-3-5----------------------3-||-3-5--5-5------------------3-5-|
D|----------------------------||-------------------------------|

 Interlude:
G|-----------------|-----------------|-----------------|
D|-----------------|-----------------|-----------------|
A|-----------------|-----------------|-----------------|
D|-5-5-3-5-0-3-5-0-|-5-5-3-5-0-3-5-3-|-5-5-3-5-0-3-5-0-|

G|---------------||-----------------|
D|---------------||-----------------|
A|---------------||-----------------|
D|-5-5-3-5-0-3-5-||-0-5-5-3-5-0-3-5-|

 End:
G|------------------------------------|
D|------------------------------------|
A|-------------------------------5----|
D|-5-5-3-5-0-3-5-0~~~~~~~~~~~~--------|

Track 8:

Title: Fistful Of Steel
Artist: Rage Against The Machine
Tuning: EADG

 Chorus:
G|-----------------||----------------|
D|-----------------||----------------|
A|--------------9-||-----------------|
E|-0-2-2--0-2-2----||-0-2-2--0-2-2---|

 Verse:                       	 fill:  Pre-Chorus:
G|-------------|---------------||-----||------------------------|
D|-------------|---------------||-----||------------------------|
A|---/9--0-2-3-|-----/9--0-2-3-||-----||-----/9--0-9-7----------|
E|-2-----------|-2-2-----------||-2~~-||-2-2-----------9--9-7-5-|

 Solo:
G|-------------------------|----------------------------|
D|-------------------------|--------------4-3-2---------|
A|----------------0--0-0-2-|--------------------4-3-2-0-|
E|-5-0-2-2--0-2-2----------|-5-0-2-2--0-2---------------|

 Outro:
G|----------------------------||----------------------|
D|----------------------------||----------------------|
A|-----------0-9-8-7--0-9-8-7-||----------------------|
E|-0-2--2/5-------------------||--0-2------------2----|

Track 9:

Title: Township Rebellion
Artist: Rage Against The Machine
Tuning: Drop-D (DADG)

*note: the verse has a strange synth-like sound to it. what i do to try to replicate
is turn the down the low, and turn up the mid and high (you could also try using a
and use a wah with the toe almost fully depressed, rocking back and forth slightly. the 
is putting the bass back up for the chorus, etc.

 Intro:		  Verse:
G|-7---7-7-7----||---------------------||----------------|
D|-7---7-7-7----||---------------------||----------------|
A|-5---5-5-5-5--||-5^---5^--5^--5^--5^-||-5^--5^--5^--5^-|
D|--------------||---------------------||----------------|

 Chorus:
G|----------------------------------------------|
D|----------------------------------------------|
A|-3-5------3-5-----------3-5------3-5------5---|
D|-----0-0------0-0--3-5------0-0------0-0----2-|

G|---------------------------------------------------|
D|------------------------------------------5^-5-3---|
A|-3-5------3-5-----------3-5------3-5-------------5-|
D|-----0-0------0-0--3-5------0-0------0-0-----------|

 Bridge:
G|-----------------||----------------------|
D|-----------------||----------------------|
A|-5-5-5-5---------||-5-5-5-5--------------|
D|----------0--0-0-||----------0--0-0--3-5-|

G|---------------------------------|-----------------------------|
D|---------------------------------|-----------------------------|
A|-5-5-5-5-------------------------|-5-5-5-5---------------------|
D|---------0-0-0-0-0-0-0-0-3-3-5-5-|---------0--0-0--0-0-0-0-3-5-|

 Outro:
G|------------------|
D|-7-------7--7-----|
A|-5-------5--5-----|
D|------------------|

Track 10:

Title: Freedom
Artist: Rage Against The Machine
Tuning: Drop-D (DADG)

 Main Riff:
G|---------------------------------------------------|
D|---------------------------------------------------|
A|-5-------3----------5-5------5-------3----------5--|
D|---0-3-5----3-5-3-5------0-3---0-3-5----3-5-3-5----|

G|------------------------------------------------------------|
D|------------------------------------------------5-4-3-------|
A|-5-------3----------5-5------5-------3----------------5-4-3-|
D|---0-3-5----3-5-3-5------0-3---0-3-5----3-5-3-5-------------|

 Verse:
G|------------------|
D|------------------|
A|------------------|
D|-0--0------0-0--0-|

 Interlude: (Anger is a gift...)
G|---------------------------||------------------------|
D|---------------------------||------------------------|
A|-3-3-3-3-3-3-5---5-5-5-3-5-||-/15-15-15-15-15-15-17--|
D|---------------------------||------------------------|

 Interlude fill: (Bring that sh*t in...)
G|---------------------------------|
D|---------------------------------|
A|-3-3-3-3-3-3-3-3-3-3-3-3-3-3-3-3-|
D|---------------------------------|

 Bridge:
G|-------------------------------------------------|
D|------------5-3-5-3-5----------------------------|
A|-5-3-5-3-5-------------3-2-3-2-3-----------------|
D|----------------------------------5-3-5-3-5-3--3-|

 Outro:
G|-----------------||----------------------------------------|
D|-----------------||----------------------------------------|
A|---------0-3-4-5-||---------0-3-4-5-----5--5--5--5--5----5-|
D|-0-3-5-6---------||-0-3-5-6--------------------------------|