Rage Against The Machine - Producer Chords & Tabs

 

Producer Chords & Tabs

Rage Against The Machine Chords & Tabs

Version: 1 Type: Bass Tab 0 ratings
1 star 2 stars 3 stars 4 stars 5 stars
comments

Producer Bass Tab

Producer (Live Version) by Rage Against The Machine
By Rob Halliday
halls_bells@hotmail.com


The original tab was by Felipe Pena Karvonen, so cheers to him for the intro 
and chorus
I found that it was much easier and sounded much the same to play it using 
normal tuning instead of dropped D
only thing I am not sure about is the open notes in the intro, doesn't sound 
right....dunno, see what you think
feel free to drop us a line with any suggestions. Cheers, Rob.

[ Tab from: http://www.guitartabs.cc/tabs/r/rage_against_the_machine/producer_btab.html ]
Intro and Bridge
G---------------------------------------------------------
D---------------------------------------------------------
A-------------------5-7-5-------------------------------
E--0--3---0-0-0----------------------------------------


Verse
G--6------------------------------6--------------------------------
D-----------------------------------7------------------------------
A----7-----5-4-2-4--------2-4-2------------5-4-2-4------2-4-2-4-2--
D---------------------2-4---------------------------2-4------------


Chorus
G-------------------------------
D-------------------------------
A-------------------------------
E--2-2-5-2-5-2-0-2-2-5-2-5------

Comments