Rage Against The Machine - No Shelter Chords & Tabs

 

No Shelter Chords & Tabs

Rage Against The Machine Chords & Tabs

Version: 3 Type: Tab 0 ratings
1 star 2 stars 3 stars 4 stars 5 stars
comments

No Shelter Tab

   
Rage Against the Machine's greatest soundtrack project, No Shelter.
I'm very positive that this is the only tab that will be 100% correct.

Tuning: D A D G B E

x = muted string
~ = vibrato

riff 1:
|-------------------------------------|
|-------------------------------------|
|-5-7---10----5-7---x-x-x-x-x-x-x-x-x-|
|-5-7---10----5-7---x-x-x-x-x-x-x-x-x-|
|-3-5----8----3-5---x-x-x-x-x-x-x-x-x-|
|-------------------------------------|

riff 2: (with wah)
|--------------|
|--------------|
|--------------|
|--------------|
|-3-5----3-5-3-|
|--------------|

riff 3
part 1:
|-16~-16~-16~-16~-16~-16~-16~-16~-|
|---------------------------------|
|---------------------------------|
|---------------------------------|
|---------------------------------|
|---------------------------------|
[ Tab from: http://www.guitartabs.cc/tabs/r/rage_against_the_machine/no_shelter_tab_ver_3.html ]
part 2:
|-16~-------16--16~-------16-16-16~-------16--16-16--16-16--16--16~-------16--|
|-----------------------------------------------------------------------------|
|-----------------------------------------------------------------------------|
|-----------------------------------------------------------------------------|
|-----------------------------------------------------------------------------|
|-----------------------------------------------------------------------------|

|-16~------16-16-16~------16--16-16--16-16--16--19-18-17-16-19-18-17-16-19-18-17-16-|
|-----------------------------------------------------------------------------------|
|-----------------------------------------------------------------------------------|
|-----------------------------------------------------------------------------------|
|-----------------------------------------------------------------------------------|
|-----------------------------------------------------------------------------------|

|-14~---------------|
|-------------------|
|-------------------|
|-------------------|
|-------------------|
|-------------------|
 |_tremolo picking_|

riff 4
part 1:
|-------------------------------------|
|-------------------------------------|
|-------------------------------------|
|------------------3------------------|
|------5--3-----------5--3--5---------|
|-3-----------0-----------------3--5--|

part 2:
|-------------------|
|-------------------|
|-------------------|
|-0-----------------|
|-0-----------------|
|-0-----------------|
Comments