Rage Against The Machine - No Shelter Chords & Tabs

 

No Shelter Chords & Tabs

Rage Against The Machine Chords & Tabs

Version: 1 Type: Tab 0 ratings
1 star 2 stars 3 stars 4 stars 5 stars
comments

No Shelter Tab

   
No Shelter - Rage Against the Machine 
Tabbed By Daniel Kihara 

Dropped D

Intro
E|-------------------------------------------------
B|-------------------------------------------------
G|-------------10----------------------------------
D|---10--12----10-----10--12----xxxxxxxx-----------
A|---10--12----8------10--12----xxxxxxxx-----------
D|---10--12-----------10--12-----------------------
   
Chorus
E|-------------------------------------------------
B|-------------------------------------------------
G|---------------------10--------------------------
D|---10--12-----x--10--10--10--x-------------------
A|---10--12-----x--10---8--10--x-------------------
D|---10--12-----x--10------10--x-------------------
w/ wah wah
[ Tab from: http://www.guitartabs.cc/tabs/r/rage_against_the_machine/no_shelter_tab.html ]
Solo
E|---16vv--16vv--16vv--16vv--16vv--16vv------------
B|-------------------------------------------------
G|-------------------------------------------------
D|-------------------------------------------------
A|-------------------------------------------------
D|-------------------------------------------------

E|---16b--16--16b--16--16b--16--1616-161616--------
B|---16b--16--16b--16--16b--16--1616-161616--------
G|-------------------------------------------------
D|-------------------------------------------------
A|-------------------------------------------------
D|-------------------------------------------------
w/ wah wah

E|---19-18-17-16--19-18-17-16--19-18-17-16--191919-
B|---19-18-17-16--19-18-17-16--19-18-17-16--191919-
G|---19-18-17-16--19-18-17-16--19-18-17-16--191919-
D|-------------------------------------------------
A|-------------------------------------------------
D|-------------------------------------------------
w/ wah wah

outro
E|-------------------------------------------------
B|-------------------------------------------------
G|-------------------------------------------------
D|-------------3-----------------------------------
A|-----3----------5-3-5----------------------------
D|---0---3-0------------3-5------------------------
Comments