Rage Against The Machine - No Shelter Chords & Tabs

 

No Shelter Chords & Tabs

Rage Against The Machine Chords & Tabs

Version: 3 Type: Bass Tab 0 ratings
1 star 2 stars 3 stars 4 stars 5 stars
comments

No Shelter Bass Tab

   
Rage Against The Machine - No Shelter

Tabbed By Stephen Pang (piequat@hotmail.com)

*Dropped D Tuning*

Intro/Verse/Chorus
G|------8/10-------8/10---|
D|-0-0--0-0---------------|
A|------------------------|
D|------------0-0--0-0----|

Pre-Chorus
G|-------------------------|
D|-------------------------|
A|-12-12-12-12-10-10-10-10-|
D|-------------------------|
[ Tab from: http://www.guitartabs.cc/tabs/r/rage_against_the_machine/no_shelter_btab_ver_3.html ]
After Chorus
G|-----------------------------------------------------------------|
D|-----------------------------3-3---------------------------------|
A|-5-5-5-5-3-3---------------------5-5-3-3-5-5-5-5-----------------|
D|-------------5-5-5-5-0-0-0-0---------------------3-3-3-3-5-5-5-5-|

Ending
G|---------------------------|
D|------------3--------------|
A|----3---------5-3-5--------|
D|-0----3--0-----------3--5--|
Comments