Rage Against The Machine - New Millenium Homes Chords & Tabs

 

New Millenium Homes Chords & Tabs

Rage Against The Machine Chords & Tabs

Version: 4 Type: Bass Tab 0 ratings
1 star 2 stars 3 stars 4 stars 5 stars
comments

New Millenium Homes Bass Tab

New Millinnium Homes
Rage Against The Machine
The Battle Of Los Angeles

tabbed by TomAnthony

Intro
  Bass fig.1
G---------------------|--------------------|
D---------------------|--Times-3-----------|
A-----5--0------5-h-7-|--------------------|
E--0-------0--0-------|--------------------|

Chorus
  Bass fig.2
G---------------------|--------------------|
D---------------------|--------------------|
A-----5--0------5-h-7-|----5--0------5-h-7-|
E--0-------0--0-------|-0-------0--0-------|

G---------------------|--------------------|
D---------------------|--------------------|
A-----5--0------5-h-7-|----5--0------5-h-7-|
E--0-------0--0-------|-0-------0--0-------|

G---------------------|--------------------|
D---------------------|--------------------|
A-----5--0------5-h-7-|----5--0------5-h-7-|
E--0-------0--0-------|-0-------0--0-------|

G---------------------|--------------------|
D---------------------|--------------------|
A-----5--0------5-h-7-|--10\7--/12\7--10/12|
E--0-------0--0-------|-0------------------|

Verse p.1
  Bass fig.3
G---------------------|--------------------|
D---------------------|--------------------|
A-10\-----------------|-10\-----------2-0--|
E--0---0----0--0------|--0---0----0--0----3|
[ Tab from: http://www.guitartabs.cc/tabs/r/rage_against_the_machine/new_millenium_homes_btab_ver_4.html ]
G---------------------|--------------------|
D---------------------|--------------------|
A-10\-----------------|-10\-----------2-0-5|
E--0---0----0--0------|--0---0----0--0-----|

Verse p.2
  Bass fig.4
G---------------------|---------------------|
D---------------------|---------------------|
A-------7-7-7---------|-------7-7-7---------|
E-0-0-0-------0-0-0---|-0-0-0-------0-0-0---|

G---------------------|---------------------|
D---------------------|---------------------|
A-------7-7-7---------|-------7-7-7---------|
E-0-0-0-------0-0-0---|-0-0-0-------0-0-0---|

Solo
  Bass fig.5

G---------------------|--------------------|
D---------------------|--------------------|
A-----5--0------5-h-7-|----5--0------5-h-7-|
E--0-------0--0-------|-0-------0--0-------|

G---------------------|--------------------|
D---------------------|--------------------|
A-----5--0------5-h-7-|----5--0------5-h-7-|
E--0-------0--0-------|-0-------0--0-------|

G---------------------|-------------------------|
D---------------------|-------------------------|
A--10/12\10----5-h-7--|--10/12\10---7-p-0--7-/10|
E-0--------0--0-------|-0--------0--------------|

G---------------------|-------------------------|
D---------------------|-------------------------|
A--10/12\10----5-h-7--|--7-/10\-7---/12-\10--\7-|
E-0--------0--0-------|-0-----------------------|


Fin~
Comments