Rage Against The Machine - New Millenium Homes Chords & Tabs

 

New Millenium Homes Chords & Tabs

Rage Against The Machine Chords & Tabs

Version: 2 Type: Bass Tab 0 ratings
1 star 2 stars 3 stars 4 stars 5 stars
comments

New Millenium Homes Bass Tab

Band: Rage Against The Machine
Song: New Mellenium Homes
Album:The Battle of Los Angelas
Tabbed By JP Fernandez

INTRO & CHORUS
G:---------------
D:---------------
A:---5-0-----5h7-
E:-0-----0-0-----

INTRO & CHORUS ENDING
G:-----------------
D:---/5--/7--------
A:-----7-------5h7-
E:-0---------0-----


VERSE 1
G:-----------------------
D:-5~---------5----------
A:-7~---------7----------
E:----0-00------0---0-00-

PRE-CHORUS
G:-------------
D:-----222-----
A:-------------
E:-000-----000-
[ Tab from: http://www.guitartabs.cc/tabs/r/rage_against_the_machine/new_millenium_homes_btab_ver_2.html ]
VERSE 2
G:------------------------------
D:-5~---------5-----------------
A:-7~---------7------------56h7-
E:----0-00------0---0-00--------

SOLOISH RIFF (First Play Intro Riff a Few Times)
E:-------------------------------------
A:---5/7-5-------------5/7-5-----------
D:-----------5h7--------------7-0------
G:-0------00--------0--------------0-3-

G:----------------------------------777-
A:----5/7-5----------------/5---7755----
D:---------------5h7----------7---------
G:-0---------00-------0-----------------

/ = Slide to
~ = Hold
h = Hammer On

This is probably wrong but it sounds close enough.
Comments