Rage Against The Machine - Microphone Fiend Chords & Tabs

 

Microphone Fiend Chords & Tabs

Rage Against The Machine Chords & Tabs

Version: 3 Type: Tab 0 ratings
1 star 2 stars 3 stars 4 stars 5 stars
comments

Microphone Fiend Tab

Rage Against the Machine
Renegades - Microphone Fiend
Drop - D tuning

Whammy pedal set for one octave below with wah - wah and distortion.
|------------------|
|------------------|
|------------------|
|------------------|Played once at the beginning of the song.
|------------------|
|-2-0-2--2-2-------|

Whammy pedal as before with wah - wah and distortion.
|----------------|--------------------|
|----------------|--------------------|
|----------------|--------------------|
|----------------|--------------------|Played throughout verses.
|----------------|--------------------|
|-2-0-2--2-2-0-2-|-2-2-0-2--2-2-0-2-2-|
[ Tab from: http://www.guitartabs.cc/tabs/r/rage_against_the_machine/microphone_fiend_tab_ver_3.html ]
With distortion.
|---------------------------|
|---------------------------|
|---------------------------|
|---------------------------|
|-----------------3-5-------|
|-2\--x-x-2-x-x-5-----3-5-0-|

With distortion.
|------------------|--------------------|
|------------------|--------------------|
|------------------|--------------------|
|------------------|--------------------|
|-0-2-x-5--0-2-x-5-|-0-2-x-5--3-5-------|
|-0-2-x-5--0-2-x-5-|-0-2-x-5------3-5-0-|

With distortion and wah - wah as a filter.
|------------------------|
|------------------------|
|------------------------|
|------------------------|
|------------------------|
|-5-x-x--x-3-4-5-x-x-x-x-|
  ^Bend up 1/4 and release.

With distortion.
|------------------------|
|------------------------|
|------------------------|
|------------------------|
|-5-x-x--x-3-4-5-x-x-x-x-|
|-5-x-x--x-3-4-5-x-x-x-x-|
  ^Bend up 1/4 and release.

     That's all I have. Questions and/or corrections can be sent to
     sis5000@yahoo.com
Comments