Rage Against The Machine - Microphone Fiend Chords & Tabs

 

Microphone Fiend Chords & Tabs

Rage Against The Machine Chords & Tabs

Version: 4 Type: Bass Tab 0 ratings
1 star 2 stars 3 stars 4 stars 5 stars
comments

Microphone Fiend Bass Tab

Bass Enters at 0:16

Verse: (This is the only part i'm not sure about)
G|------------------------------|
D|---------4--------------------|
A|------------------------------|
E|-2/5\2----2-2--2/5\2----------|x

Pre-Chorus: (You dont have to play these as chords, but it gives it a fuller sound)
G|--------------------------|
D|-7~---7~---7~-7~-7~-7~----|
A|-0~---0~---0~-0~-0~-0~----|
E|-5~---5~---5~-5~-5~-5~----|
[ Tab from: http://www.guitartabs.cc/tabs/r/rage_against_the_machine/microphone_fiend_btab_ver_4.html ]
Chorus:
G|-----------------------------|
D|--------------2-4------------|
A|------------0----------------|
E|-2\----0h2-x------0-2-0------|

Repeat Verse

Repeat Chorus

Bridge:
G|-----------------------------------|
D|------------------------2-4--------|
A|------0-------0-------0------------|
E|-0h2-x---0h2-x---0h2-x------0-2-0--|

Interlude:
G|---------------------------------------------------------------------|
D|---------------------------------------------------------------------|
A|---------------------------------------------------------------------|
E|-3b-xx-x0h1h2-xxxx-----2b-2b-2b-2b-2b-2b-2b-2b-2b-2b-----------------|

Chorus

Bridge

Thats it.
Comments