Rage Against The Machine - Microphone Fiend Chords & Tabs

 

Microphone Fiend Chords & Tabs

Rage Against The Machine Chords & Tabs

Version: 3 Type: Bass Tab 0 ratings
1 star 2 stars 3 stars 4 stars 5 stars
comments

Microphone Fiend Bass Tab

   
Artist: Rage Agianst The Machine
Song  : Microphone Fiend
Album : Renegades
Bassit: Tim Commerford
Tuning: GDAE (standard)
Timing: 4/4
Tabbed: Simon Skipper

None of these taps were right so i had to figure it out my self. 
Dont know if the chorus and bridge 1 are 100% correct but they sound good anyways.



x - Dead note
^ - Bend
p - Pull off
h - Hammer on
a - Accentuate
~ - Let the note ring


Verse

G|--------------------------------|
D|--------------------------------|
A|--------------------------rest--|
E|--2p0-2---5p4-5---2p0-2---------|


Pre Chorus

G|------------------------------|
D|------------------------------|
A|--a-----a-----a---a---a---a---|
E|--5~----5~----5~--5~--5~--5~--|


Chorus
[ Tab from: http://www.guitartabs.cc/tabs/r/rage_against_the_machine/microphone_fiend_btab_ver_3.html ]
G|-------------------------------|
D|--------------------2-4--------|
A|--a---------------4-----2-4-0--|
E|--2~------x-x-4h5--------------|


Bridge 1
  x3                                        
G|------------------|         E|-------------|
D|------------------|         D|--2-4--------|
A|--------a---------|  Then   A|------2-4-0--|
E|--0-2-x-5~--------|         E|-------------|


Bridge 2    
only do a very small bend

G|------------------------------|
D|------------------------------|    
A|--^---------------------------|
E|--3---x-x----x-0h1-2--x-x-x-x-|

Build Up For Bridge 2       
only do a very small bend

G|--------------------------|        
D|--------------------------|         
A|--^--^--^--^--^--^--^--^--|          (,,) 
E|--3--3--3--3--3--3--3--3--| 		     



THE END!

any probs?
E-mail 
play_field@hotmail.com
Comments