Rage Against The Machine - Microphone Fiend Chords & Tabs

 

Microphone Fiend Chords & Tabs

Rage Against The Machine Chords & Tabs

Version: 2 Type: Bass Tab 0 ratings
1 star 2 stars 3 stars 4 stars 5 stars
comments

Microphone Fiend Bass Tab

   
Song: Microphone Fiend
Artist: Rage Against the Machine
Album: Renegades
Tabbed by: Sam Sproull (theholymule@hotmail.com)
Date: 2000-12-26

I think this is a fairly good and easier to play improvement over
Mark Pasierb.
Enter song at 16 seconds

Verse
G:---------------------------------------I
D:---------------------------------------I
A:---------------------------------------I
D:-5b\--/5b\----7b/8\-------5b\--/5b\----I

Chorous

G:------------------------------------I
D:------------------------------------I
A:-0----0---0-0-0-0-------------------I
D:------------------------------------I
[ Tab from: http://www.guitartabs.cc/tabs/r/rage_against_the_machine/microphone_fiend_btab_ver_2.html ]
G:----------------------------------------------I
D:--------------------------3---5---------------I
A:----------------------5-----------------------I
D:--5b\----xx-5h6---------------3-----5-----3---I

Bridge 1

G:------------------------------------I
D:------------------------------------I
A:----------0-------------0-----------I
D:--4h5-x-------4h5-x-----------------I

G:----------------------------------I
D:--------------3---5---------------I
A:----------0-----------------------I
D:--4h5-x--------------3---5---3----I

Bridge 2

G:------------------------------I
D:------------------------------I
A:------------------------------I
D:-5b\--xx-x--2-3-5xxxx---------I

Build up to second time
G:-------I
D:-------I    X 33
A:-------I
D:-5-5-5-I

Comments