Rage Against The Machine - Maria Chords & Tabs

 

Maria Chords & Tabs

Rage Against The Machine Chords & Tabs

Version: 3 Type: Bass Tab 0 ratings
1 star 2 stars 3 stars 4 stars 5 stars
comments

Maria Bass Tab

Song: Rage Against The Machine - Maria
Submitted by: Krysus

p = pull off



Riff 1 (Verse)

|-----------------------------------|
|---------5-5-5-7-7-7-------9-9-9-9-|
|---7-7-7-------------5-5-5-7-7-7-7-|
|-----------------------------------|

Riff 2 (pre-chorus)
|------------------------------|
|---------------5-5---5-5---7--|
|--7-7-7-7----------7-----5----|
|------------------------------|

in the end of the pre-chorus you just play 

|--------------|
|--------------|
|--7-7-7-7-----|					
|--------------|


Riff 3 (chorus)
|--------------------------------|------------------------------|
|--------------------------------|------------------------------|
|---7-5-7-----5-2-5--------------|------------------------------|
|-----------0--------5p3-3-5--0--|--3-0-3---0-5-3-5---0-7-5-7---|



during the solo you play 
[ Tab from: http://www.guitartabs.cc/tabs/r/rage_against_the_machine/maria_btab_ver_3.html ]
-------------------------------|-------------------------------|
-------------------------------|-------------------------------|
--7-5-7-----5-2-5--------------|--7-5-7-----5-2-5--------------|
----------0--------5p3-3-5--0--|----------0--------5p3-3-5--0--|

-----------------------------|--------------------------------|
-----------------------------|--------------------------------|
-----------------------------|--7-5-10-----5-2-5--------------|
--3-0-3---0-5-3-5---0-7-5-7--|-----------0--------5p3-3-5--0--|

-----------------------------|--------------------------------|
-----------------------------|--------------------------------|
-----------------------------|--7-5-10-----5-2-5--------------|
--3-0-3---0-5-3-5---0-7-5-7--|-----------0--------5p3-3-5--0--|

-----------------------------|
-----------------------------|
-----------------------------|
--3-0-3---0-5-3-5---0-7-5-7--|


ORDER
----------------

Riff 1      13x
Riff 2      8x
Riff 3      2x
Riff 1      12x
Riff 2      8x
Riff 3      3x
Solo-riff   1x
Riff 3      4x

That's done.
This Tab should be perfekt.... have fun!

Please Rate!!!!!!!
Comments