Rage Against The Machine - Maggies Farm Chords & Tabs

 

Maggies Farm Chords & Tabs

Rage Against The Machine Chords & Tabs

Version: 5 Type: Tab

Maggies Farm Tab

E|--12------12------12------12------10------10------10------10--|
B|------12------12------12------12------12------12------12------|
G|--------------------------------------------------------------|
D|--------------------------------------------------------------|
A|--------------------------------------------------------------|
D|--------------------------------------------------------------|

E|--12------12------12------12------10------10------10~---|-----|
B|------12------12------12------12------12------12--------|-----|
G|--------------------------------------------------------|-----|
D|--------------------------------------------------------|-7/--|
A|--------------------------------------------------------|-7/--|
D|--------------------------------------------------------|-0---|

E|--------------------------------------------------------------|
B|--------------------------------------------------------------|
G|--------------------------------------------------------------|
D|--0-0-3p0--0-X--0-3p0-X-5---0-0-3p0-0--------3----------------|
A|--0-0-3p0--0-X--0-3p0-X-5---0-0-3p0-0----3-5---5-3------------|
D|--0-0-3p0--0-X--0-3p0-X-5---0-0-3p0-0--------------5-3--------|

E|---------------------------------------| I a'int gonna work on, 
B|---------------------------------------| maggie's farm no more
G|---------------------------------------|
D|--0-0-3p0--0-X--0-3p0-X-5---0-0-3p0-0--|
A|--0-0-3p0--0-X--0-3p0-X-5---0-0-3p0-0--|
D|--0-0-3p0--0-X--0-3p0-X-5---0-0-3p0-0--|

E|-------------------------|
B|-------------------------| ...when she makes you, scrub tha floor
G|-------7~~---------------|
D|--0-0--7~~----0-0--7~~---|
A|--0-0--5~~----0-0--7~~---|
D|--0-0---------0-0--7~~---|

E|---------------------------|
B|---------------------------| I a'int gonna work for, maggie's brotha
G|---------------------------| no more
D|--0-0-X-X-0-X-X-0-X-X-X-X--|
A|--0-0-X-X-0-X-X-0-X-X-X-X--|
D|--0-0-X-X-0-X-X-0-X-X-X-X--|

E|----------------------------------------------------|
B|----------------------------------------------------| Well he hands you
G|----------------------------------------------------| a nickel...
D|--0-0-3p0--0-X--0-3p0-X-5--0-0-3p0--0-X--0-3p0-X-5--|
A|--0-0-3p0--0-X--0-3p0-X-5--0-0-3p0--0-X--0-3p0-X-5--|
D|--0-0-3p0--0-X--0-3p0-X-5--0-0-3p0--0-X--0-3p0-X-5--|

E|-------------------------------------|
B|-------------------------------------| And he fines you, every time you
G|--7-7-7-7-7-7-7-7--------------------| slam the door...
D|--7-7-7-7-7-7-7-7---7-7-7-7-7-7-7-7--|
A|--5-5-5-5-5-5-5-5---7-7-7-7-7-7-7-7--|
D|--------------------7-7-7-7-7-7-7-7--|

E|---------------------------------------|
B|---------------------------------------| I a'int work for maggie's pa
G|---------------------------------------| no more
D|--0-0-3p0--0-X--0-3p0-X-5---0-0-3p0-0--|
A|--0-0-3p0--0-X--0-3p0-X-5---0-0-3p0-0--|
D|--0-0-3p0--0-X--0-3p0-X-5---0-0-3p0-0--|

E|-------------------------|
B|-------------------------| Well he puts out his cigars out on yo face
G|-------7~~---------------| just for kicks
D|--0-0--7~~----0-0--7~~---|
A|--0-0--5~~----0-0--7~~---|
D|--0-0---------0-0--7~~---|
[ Tab from: http://www.guitartabs.cc/tabs/r/rage_against_the_machine/maggies_farm_tab_ver_5.html ]
E|---------------------------|
B|---------------------------| I a'int gonna work for maggie's ma no 
G|---------------------------| more
D|--0-0-X-X-0-X-X-0-X-X-X-X--|
A|--0-0-X-X-0-X-X-0-X-X-X-X--|
D|--0-0-X-X-0-X-X-0-X-X-X-X--|

E|----------------------------------------------------|
B|----------------------------------------------------| Well she talks to 
G|----------------------------------------------------| all the servents
D|--0-0-3p0--0-X--0-3p0-X-5--0-0-3p0--0-X--0-3p0-X-5--| about man, gun, and
A|--0-0-3p0--0-X--0-3p0-X-5--0-0-3p0--0-X--0-3p0-X-5--| law
D|--0-0-3p0--0-X--0-3p0-X-5--0-0-3p0--0-X--0-3p0-X-5--|

E|-------------------------------------|
B|-------------------------------------| She's 68, but she says she's 
G|--7-7-7-7-7-7-7-7--------------------| 24
D|--7-7-7-7-7-7-7-7---7-7-7-7-7-7-7-7--|
A|--5-5-5-5-5-5-5-5---7-7-7-7-7-7-7-7--|
D|--------------------7-7-7-7-7-7-7-7--|

SOLO
  
  Guitar 1 (Tom)
E|---------------------------------------------|
B|---------------------------------------------|
G|--12-12-12-12-12-12-12-12-12-12-12-12-12-12--|
D|---------------------------------------------|
A|---------------------------------------------|
D|---------------------------------------------|X4

E|--------------------------------------------|
B|--------------------------------------------|
G|--12-14-12--12-14-12--12-14-12-14-12-17-12--|
D|--------------------------------------------|
A|--------------------------------------------|
D|--------------------------------------------|X2

  Guitar 2 (also Tom)
E|-------------|
B|-------------| You will hear this note several times in the song, 
G|-------------| but during the solo will will hear back to back a 
D|-12/~~~~~~~--| few times
A|-------------|
D|-------------|

E|--12------12------12-------------10------10------10-------------|
B|------12------12---------------------12------12-----------------|
G|----------------------------------------------------------------|
D|----------------------0-3p0-0-5----------------------0-3p0-0-5--|
A|----------------------0-3p0-0-5----------------------0-3p0-0-5--|
D|----------------------0-3p0-0-5----------------------0-3p0-0-5--|

E|-------------------------------------|--------------------------|
B|-------------------------------------|--------------------------|
G|--7-7-7-7-7-7-7-7--------------------|--------------------------|
D|--7-7-7-7-7-7-7-7---7-7-7-7-7-7-7-7--|-0-0-X-X-0-X-X-0-X-X-X-X--|
A|--5-5-5-5-5-5-5-5---7-7-7-7-7-7-7-7--|-0-0-X-X-0-X-X-0-X-X-X-X--|
D|--------------------7-7-7-7-7-7-7-7--|-0-0-X-X-0-X-X-0-X-X-X-X--|X2

E|--------------------------------------------------------------|
B|--------------------------------------------------------------|
G|--------------------------------------------------------------|
D|---------------------------------------------3----------------|
A|-----------------------------------------3-5---5-3------------|
D|--0-0-3p0--0-X--0-3p0-X-5---0-0-3p0-0--------------5-3--------| X2

E|--------------------------------------------------------------|
B|--------------------------------------------------------------|
G|--------------------------------------------------------------|
D|--0-0-3p0--0-X--0-3p0-X-5---0-0-3p0-0--------3----------------|
A|--0-0-3p0--0-X--0-3p0-X-5---0-0-3p0-0----3-5---5-3------------|
D|--0-0-3p0--0-X--0-3p0-X-5---0-0-3p0-0--------------5-3--------|
  Play until the end of the song