Rage Against The Machine - Maggies Farm Chords & Tabs

 

Maggies Farm Chords & Tabs

Rage Against The Machine Chords & Tabs

Version: 2 Type: Tab 0 ratings
1 star 2 stars 3 stars 4 stars 5 stars
comments

Maggies Farm Tab

   
Rage Against the Machine
Renegades - Maggie's Farm
Drop-D tuning

|-12-----12-----12-----12-----|-10-----10-----10-----10-----|
|-----12-----12-----12-----12-|-----12-----12----*12-----12-|
|-----------------------------|-----------------------------|
|-----------------------------|-----------------------------|
|-----------------------------|-----------------------------|
|-----------------------------|-----------------------------|
* On the second repeat in the intro, the notes beyond the * are 
 not played, but the previous note on the high E string (10) is 
 held out longer. If this confuses you listen to the song, you'll get it.     
[ Tab from: http://www.guitartabs.cc/tabs/r/rage_against_the_machine/maggies_farm_tab_ver_2.html ]
|--------------|-----------------------|------------------------------|
|--------------|-----------------------|------------------------------|   
|--------------|-----------------------|------------------------------|
|--------------|-----------------------|------------------------------|
|--------------|-----------------------|---------------------3--------|
|--------------|-----------------------|-----------------3-5---5-3----|
|-12\----------|-0-0-5-0-0-3-0-5-0-x-5-|--0-0-5-0-0-3-------------5-3-|
   ^Slide down from 12               ^Bend up 1/4
   ^(only played first time)

Palm Muted (entire riff)
|--------------------------|-----------------------|
|--------------------------|-----------------------|
|--------------------------|-----------------------|
|--------------------------|-----------------------|
|--------------------------|-----------------------|
|-0-0-5-0-0-3-0-5-0-x-5----|--0-0-5-0-0-3----------|
                      ^Bend up 1/4

|--------------------------|
|--------------------------|
|--------------------------|
|--------------------------|
|--------------------------|
|-0-0-x-x-0-x-x-0-x-x-x-x--|

I have not even attempted to try and tab the solo. Also, 
in no way is the timing, the order, or the repeats indicated
 on this tab. Just listen to the song to figure it out. 
Hope this helps. Send questions, comments, corrections,
 and/or additions to sis5000@yahoo.com
Comments