Rage Against The Machine - Maggies Farm Chords & Tabs

 

Maggies Farm Chords & Tabs

Rage Against The Machine Chords & Tabs

Version: 1 Type: Tab 0 ratings
1 star 2 stars 3 stars 4 stars 5 stars
comments

Maggies Farm Tab

   

maggies_farm.tab

      
      
#----------------------------------PLEASE NOTE---------------------------------#
#This file is the author's own work and represents their interpretation of the #
#song. You may only use this file for private study, scholarship, or research. #
#------------------------------------------------------------------------------##

Name: Maggie's Farm
Written by: Bob Dylan
Performed by: Rage Against the Machine (cover)
Recording: Renegades of Funk

Drop-B tuning

Tabbed by Unisonbender
 
Here's another song that is played in drop-B tuning (NOT DROP-D!) - actually I suspect that Tom may be using a 7-string guitar (which has b string lower than the low e) but if you don't have a 7-string guitar (like me) you'll want to tune your low E down to a B (fret the E string at the tenth fret and tune down until it sounds like the open a string) and play my version below:

RIFF 1:
|-12-----12-----12-----12-----|-10-----10-----10-----10-----|
|-----12-----12-----12-----12-|-----12-----12-----12-----12-|
|-----------------------------|-----------------------------|
|-----------------------------|-----------------------------|
|-----------------------------|-----------------------------|
|-----------------------------|-----------------------------|

RIFF 1a:
|-12-----12-----12-----12-----|-10-----10-----10------------|
|-----12-----12-----12-----12-|-----12-----12---------------|
|-----------------------------|-----------------------------|
|-----------------------------|-----------------------------|
|-----------------------------|-----------------------------|
|-----------------------------|-------------------------12\-|

RIFF 2:
|-----------------------------|-----------------------------|
|-----------------------------|-----------------------------|
|-----------------------------|-----------------------------| 
|-----------------------------|--------------------0--------|
|-----------------------------|----------------0-2---2-0----|
|-0--0--3-0-0-0--0-3-0--x-5---|-0--0--3-0-0-0------------5-3|
         p          p                  p

RIFF 3:
|-----------------------------|-----------------------------|
|-----------------------------|-----------------------------|
|-----------------------------|-----------------------------| 
|-----------------------------|-----------------------------|
|-----------------------------|-----------------------------|
|-0--0--3-0-0-0--0-3-0--x-5---|-0--0--3-0-0-0---------------|
         p          p                  p
  palm mute..................................

FILL 1:
|-----------------------------|-----------------------------|
|-----------------------------|-----------------------------|
|----2------------------------|-----------------------------| 
|----2------------------------|----2------------------------|
|-----------------------------|----2------------------------|
|-0---------------------------|-0---------------------------|
 let ring...................... let ring....................   

RIFF 4:
|-----------------------------|-----------------------------|
|-----------------------------|-----------------------------|
|-----------------------------|-----------------------------| 
|-----------------------------|-----------------------------|
|-----------------------------|-----------------------------|
|-0--0--x-x-0--x-x-0--x-x-x-x-|-0--0--x-x-0--x-x-0--x-x-x-x-|                            

RIFF 5:
|-----------------------------|-----------------------------|
|-----------------------------|-----------------------------|
|-----------------------------|-----------------------------| 
|-----------------------------|-----------------------------|
|-----------------------------|-----------------------------|
|-0--0--3-0-0-0--0-3-0--x-5---|-0--0--3-0-0-0--0-0-3--x-5---|
         p          p                  p

RIFF 6:
|-----------------------------|-----------------------------|
|-----------------------------|-----------------------------|
|-----------------------------|-----------------------------| 
|2---2---2---2---2---2---2---2|-----------------------------|
|0---0---0---0---0---0---0---0|7---7---7---7---7---7---7---7|
|-----------------------------|5---5---5---5---5---5---5---5|

[ Tab from: http://www.guitartabs.cc/tabs/r/rage_against_the_machine/maggies_farm_tab.html ]
FILL 2:
|-----------------------------|-----------------------------|
|-----------------------------|----------------^10----------|
|-----------------------------|----------------^9-----------| 
|-----------------------------|-----------------------------|
|-----------------------------|-----------------------------|
|-----------------------------|-----------------------------|
                                                pre-bend 2 frets
                                                and release
(not sure if I have got right but the pitch is fairly accurate,
possibly a harmonizer is being used or 2 or more guitars are playing
the fill; maybe each guitar is prebent slightly out of tune to each 
other and released back into unison)

BASS RIFF 1:
|-----------------------------|
|-----------------------------|
|-----------------------------| 
|-0-1--1-1-1-2--2-2-2-3--3-3-3|
   h        h        h 

FILL 3:
|-----------------------------|-----------------------------|
|--^10------------------------|--^10------------------------|
|-------^9--------------------|-------^9--------------------| 
|-----------------------------|-----------------------------|
|-----------------------------|-----------------------------|
|-----------------------------|-----------------------------|
   prebend each note
   2 frets and release
(two guitars playing this fill, one in each channel, not sure
which is left and which though!)

FILL 4:
|-----------------------------|-----------------------------|
|-0-0-0-0-0-0-0-0-0-0-0-0-0-0-|-0-0-0-0-0-0-0-0-0-0-0-0-0-0-|
|-----------------------------|-----------------------------| 
|-----------------------------|-----------------------------|
|-----------------------------|-----------------------------|
|-----------------------------|-----------------------------|
trem pick open b string (high b string!)

FILL 5:
|-----------------------------|-----------------------------|
|-------12------------12------|------12------12------12-----|
|--\14------14----14------14--|-\14------14------14------14-| 
|-----------------------------|-----------------------------|
|-----------------------------|-----------------------------|
|-----------------------------|-----------------------------|

RIFF 7:
|-12-----12-----12\-----------|-10-----10-----10\-----------|
|-----12-----12---------------|-----12-----12---------------|
|-----------------------------|-----------------------------|
|-----------------------------|-----------------------------|
|-----------------------------|-----------------------------|
|------------------------x-5--|------------------------x-5--|

RIFF 8:
|-----------------------------|-----------------------------|
|-----------------------------|-----------------------------|
|-----------------------------|-----------------------------| 
|-----------------------------|--------------------0--------|
|-----------------------------|----------------0-2---2-0----|
|-----------------------------|--------------------------5-3|
        
played by 2nd guitar once only during outro, see structure below

RIFF 9:
|-----------------------------|-----------------------------|
|-----------------------------|-----------------------------|
|-----------------------------|-----------------------------| 
|-----------------------------|----------------2------------|
|-----------------------------|----------------0-----5------|
|-0--0--3-0-0-0--0-3-0--x-5---|-0--0--3-0-0-0--------3------|

FILL 4:
|--------------------------------|
|12-------12---------------------|
|14^---14-14^---14-14-14-14-14-14|
|--------------------------------|
|--------------------------------|
|--------------------------------|
   unison   unison 
   bend     bend
 let[12]note ring..............


Structure - something like:

RIFF 1 x1
RIFF 1a x1
RIFF 2 x2
#
RIFF 2 x2 second time with FILL 2 x2
RIFF 3 x4
RIFF 3 x1 with FILL 1 x1
RIFF 3 x1
RIFF 3 x1 with FILL 1 x1
RIFF 3 x1
RIFF 4 x2
RIFF 5 x2
RIFF 6 x1
RIFF 4 x1
RIFF 6 x1
let open E (B) string ring for a bar
repeat from #
after repeat
BASS RIFF 1 x2 with FILL 3 x2 and FILL 4x2
BASS RIFF 1 x2 with FILL 3 x2, FILL 4x2 and FILL 5 x2
RIFF 1 x2
RIFF 7 X2
RIFF 6 x1
RIFF 4 x1
RIFF 6 x1
let open E (B) string ring for a bar
RIFF 2 x1 -slowly one gutiar only
RIFF 2 x1 with RIFF 8 x1 (2nd gutiar joins in)
RIFF 2 x1 -pick up pace a little
RIFF 2 x1
RIFF 2 x2 with FILL 2 x2
RIFF 9 X1 with FIll 2 x1
RIFF 2 x1 with FILL 2 x1
RIFF 9 X1 with FIll 2 x1
RIFF 2 x1 with FILL 2 x1
RIFF 9 X1 with FIll 2 x1 and FILL 4 x1
RIFF 2 x1 with FILL 2 x1 and FILL 4 x1
RIFF 9 X1 with FIll 2 x1 and FILL 4 x1
RIFF 2 x1 with FILL 2 x1 and FILL 4 x1
RIFF 9 X1 with FIll 2 x1 and FILL 4 x1
...and finish

of course you all know that this tab is not much good by itself; you should listen to the song 
while you're reading it and try to follow only. If it doesn't make sense to you or you
wanna rag me out cause you think its wrong, post a topic about it in the GTU general Forum,
that's about the only GTU forum I look at nowadays....

Comments