Rage Against The Machine - Kick Out The Jams Chords & Tabs

 

Kick Out The Jams Chords & Tabs

Rage Against The Machine Chords & Tabs

Version: 3 Type: Bass Tab 0 ratings
1 star 2 stars 3 stars 4 stars 5 stars
comments

Kick Out The Jams Bass Tab

----------------------------------------------------------------------------
KICK OUT THE JAMS - Rage Against the Machine
----------------------------------------------------------------------------

Tuning:Standard

Intro: (we gotta kick 'em out)
G|-----------------------------------------------------Play 1x--------------|
D|--------------------------------------------------------------------------|
A|--------------------------------------------------------------------------|
E|-(snare hit)---5557~------------------------------------------------------|

Verse:
G|-----------------------------------------------------Play 12x--------------|
D|----------5-7--7-----------------------------------------------------------|
A|--------77-------7-5-------------------------------------------------------|
E|---------------------------------------------------------------------------|
[ Tab from: http://www.guitartabs.cc/tabs/r/rage_against_the_machine/kick_out_the_jams_btab_ver_3.html ]
Verse Variation: (those are all twelves or fourteens)
G|-----------------------------------------------------Play 2x--------------|
D|-------------5/12-1212\-----5/14-1414\------------------------------------|
A|-----------77------------77-----------------------------------------------|
E|--------------------------------------------------------------------------|

Chorus:
G|-----------------------------------------------------Play 1x--------------|
D|--------------------------------------------------------------------------|
A|------------5~--------5~---X----------------------------------------------|
E|----5557~--------3~--------X----------------------------------------------|

For the solo, play the verse, but play the variation 4 times instead of twice

Ending (not the correct amount of notes, but, you get the idea)
G|-------------------------7777777---------------------Play 1x--------------|
D|--------------------------------------------------------------------------|
A|--------------------------------------------------------------------------|
E|------7777777777--------------------------77777\--------------------------|

| /  slide up
| \  slide down
| ~  let ring
| X  Palm mute
============================================================================
Comments