Rage Against The Machine - Im Housin Chords & Tabs

 

Im Housin Chords & Tabs

Rage Against The Machine Chords & Tabs

Version: 3 Type: Tab 0 ratings
1 star 2 stars 3 stars 4 stars 5 stars
comments

Im Housin Tab

------------------------------------------------------------|
------------------------------------------------------------|
------------------------------------------------------------|
------------------------------------------------------------|
----7-10--7--6--5--2--1----------7-10--7--6--5--2--1--------|
-0-----------------------3-5--0-----------------------0--0--|
[ Tab from: http://www.guitartabs.cc/tabs/r/rage_against_the_machine/im_housin_tab_ver_3.html ]
----------------------------|
----------------------------|
----------------------------|
-2--2-------0--0------------|
-------0-2--------2-0-------|
-----------------------3-0--|

---------------------------------|
---------------------------------|
---------------------------------|
---------------------------------|
---------------------------------|
-12-0--12-0--12-0--12-0--0-0-15--|


thats it the hammering is a little bit tricky but since it is really a bass
tab it shouldn't be a problem thanx.:)
Comments