Rage Against The Machine - Im Housin Chords & Tabs

 

Im Housin Chords & Tabs

Rage Against The Machine Chords & Tabs

Version: 3 Type: Bass Tab 0 ratings
1 star 2 stars 3 stars 4 stars 5 stars
comments

Im Housin Bass Tab

   
-------------------------------------------------------------------------------
			  I'm Housin' by Rage Against The Machine
-------------------------------------------------------------------------------

Tabbed By : Mike Antoch
e-mail: Sodaman34@aol.com

Tuning: E,A,D,G (standard)

This is a simple song, with practice


this is the bass intro (this is also the verses):
G|--------------------------------------------------------------------------|
D|--------------------------------------------------------------------------|
A|-10-7-6-5-2-1-----10-7-6-5-2-1--------------------------------------------|
E|0------------3-5-0------------0-0-----------------------------------------|

prechorus 1("cause im housin'!!"):
G|--------------------------------------------------------------------------|
D|--------------------------------------------------------------------------|
A|7-7-----7-7-----7-7-----7-7-----------------------------------------------|
E|--------------------------------------------------------------------------|
[ Tab from: http://www.guitartabs.cc/tabs/r/rage_against_the_machine/im_housin_btab_ver_3.html ]
prechorus 2(x4 i think):
G|--------------------------------------------------------------------------|
D|--------------------------------------------------------------------------|
A|5-7-5-7-5-7-5-7-10--------------------------------------------------------|
E|--------------------------------------------------------------------------|

chorus:
G|--------------------------------------------------------------------------|
D|--------------------------------------------------------------------------|
A|7-7-0-2-5-5-3-2-----------------------------------------------------------|
E|----------------3---------------------------------------------------------|


play the verse again
then prechorus
then chorus

now the solo part, this may not be that accurate because i couldnt hear the bass too 
i think):
G|--------------------------------------------------------------------------|
D|--------------------------------------------------------------------------|
A|7-7-7-7-7-7-5-7-10--7-7-7-7-7-7-6-7-5-------------------------------------|
E|--------------------------------------------------------------------------|


now play prechorus 2
then play the chorus again
then to end, play prechorus 1

| /  slide up
| \  slide down
| h  hammer-on
| p  pull-off
| ~  vibrato
| +  harmonic
| x  Mute note
============================================================================
Comments