Rage Against The Machine - Im Housin Chords & Tabs

 

Im Housin Chords & Tabs

Rage Against The Machine Chords & Tabs

Version: 2 Type: Bass Tab 0 ratings
1 star 2 stars 3 stars 4 stars 5 stars
comments

Im Housin Bass Tab

Song:  I'm Housin'
Artist:  Rage Against the Machine
Album:  Renegade    
Tabbed by:  Ryan Lazenby
E-mail:  r3reachme@hotmail.com
Originally Tabbed by: Mark Pasierb

Sorry but there is a much easier way of playing this song than the way tabbed 
by mark which allows for the continuing open 'e' note thru the softer bit.

standard tuning

(fig 1)
g|----------------------------|------------------------|
d|----------------------------|------------------------|
a|----7/10--7--6--5-2-1-------|--7/10--7--6--5-2-1-----|
e|-0--------------------3h5-0-|---------------------00-|
[ Tab from: http://www.guitartabs.cc/tabs/r/rage_against_the_machine/im_housin_btab_ver_2.html ]
(fig 2)
g|-----------------------------------|
d|2-2------2-2------2-2------2-2-----|
a|-----------------------------------|
e|0-0------0-0------0-0------0-0-----|

(fig 3)
g|----------------------------|
d|----------------------------|
a|----------------------------|
e|-12-0--12-0--12-0--12-00-15-|

(fig 4)

g|---------------------|
d|-2--2-----0--0-------|
a|------0h2------2-0---|
e|-------------------3-|

the rhythm and structure are both pretty easy if you actually listen to the 
song so there.

heres the order tho.

fig 1 x5
fig 2 x1
fig 3 x4
fig 4 x8
fig 1 x5
fig 2 x1
fig 3 x4
fig 4 x8
fig 3 x12
fig 4 x8
fig 2 x1

just add a few slides down to break things up and intruduce the next bit and 
you could pass yourself off for timmy c yourself if not for the big tattoo 
t-shirt business!
Comments