Rage Against The Machine - Im Housin Chords & Tabs

 

Im Housin Chords & Tabs

Rage Against The Machine Chords & Tabs

Version: 1 Type: Bass Tab 0 ratings
1 star 2 stars 3 stars 4 stars 5 stars
comments

Im Housin Bass Tab

rage against the machine
tabs for im housin

	tabbed by rossko :)
	email. fourstring@one.net.au 
		
intro
                                    
G----------------------------------------------------------------
D------\17-------------------------------------------------------
A----------19-18-17----------------------------------------------
E---0---------------19-18-16H17-0--------------------------------
    let ring



G----------------------------------------------------------------
D------\17-------------------------------------------------------
A----------19-18-17----------------------------------------------
E---0---------------19-18/-0-0-----------------------------------
    let ring

repeat intro 5 times then play this

G----------------------------------------------------------------
D----------------------------------------------------------------
A----------------------------------------------------------------
E---0-0-------0-0-------0-0-------0-0----------------------------



G----------------------------------------------------------------
D----------------------------------------------------------------
A---7---7---7---7---8-10-----------------------------------------
E-----0---0---0---8----------------------------------------------


repeat 4 times then

chorus
G----------------------------------------------------------------
D----------------------------------------------------------------
A-----------5--5-3-----------------------------------------------
E---0-0-3H5--------5-3-------------------------------------------


repeat 8 times then
back to beginning only once then

[ Tab from: http://www.guitartabs.cc/tabs/r/rage_against_the_machine/im_housin_btab.html ]
G----------------------------------------------------------------
D----------------------------------------------------------------
A---7---7---7---7---8-10-----------------------------------------
E-----0---0---0---8----------------------------------------------


repeat 4 times then this sequence for guitar solo


G----------------------------------------------------------------
D----------------------------------------------------------------
A---7---7---7---7---8-10-----------------------------------------
E-----0---0---0---8----------------------------------------------


G----------------------------------------------------------------
D----------------------------------------------------------------
A---7---7---7---7---8-5------------------------------------------
E-----0---0---0---8----------------------------------------------


repeat 3 times then play this

 
G----------------------------------------------------------------
D----------------------------------------------------------------
A---7---7---7---7---8-10-----------------------------------------
E-----0---0---0---8----------------------------------------------



G----------------------------------------------------------------
D----------------------------------------------------------------
A---7---7---7-----10/--------------------------------------------
E-----0---0---0--------------------------------------------------


chorus

G----------------------------------------------------------------
D----------------------------------------------------------------
A-----------5--5-3-----------------------------------------------
E---0-0-3H5--------5-3-------------------------------------------


repeat chorus 8 times then finish with 

G----------------------------------------------------------------
D----------------------------------------------------------------
A----------------------------------------------------------------
E---0-0-------0-0-------0-0-------0-0----------------------------

Comments