Rage Against The Machine - How I Could Just Kill A Man Chords & Tabs

 

How I Could Just Kill A Man Chords & Tabs

Rage Against The Machine Chords & Tabs

Version: 4 Type: Tab 0 ratings
1 star 2 stars 3 stars 4 stars 5 stars
comments

How I Could Just Kill A Man Tab

   
Band: Rage Against The Machine
Song: How I Could Just Kill A Man
CD: Renegades
Guitarist: Tom Morello

DROP D!

Listen to the timing and stuff with the CD. Its pretty easy.
[ Tab from: http://www.guitartabs.cc/tabs/r/rage_against_the_machine/how_i_could_just_kill_a_man_tab_ver_4.html ]
Intro/Verse
 Use a whammy pedal and flipping your toggle switch back & forth.
 |-----------------------------------------------------------------------------|
 |-----------------------------------------------------------------------------|
 |-----------------------------------------------------------------------------|
 |-----------------------------------------------------------------------------|
 |-----------------------------------------------------------------------------|
 |-h10-h12-h10-h12--h10-h12--h12-h10-h15--h10-h12-h10-h12--h10-h12-h12-h10-h12-|

Chorus
 |----------------------------------|
 |----------------------------------|
 |----------------------------------|
 |---3------------------------------|
 |-----------3------------x-x-------|
 |-0---0-3-5----0-0-0-0-0-x-x-3h5-3-|

 |------------------------|
 |------------------------|
 |------------------------|
 |---3--------------------|
 |-----------3------------|
 |-0---0-3-5----0-0-0-0-0-|

Bride
 |-----------------|
 |-----------------|
 |-----------------|
 |-----------------|
 |-2h4-0h2h4-0h2h4-|
 |-----------------|
Comments