Rage Against The Machine - How I Could Just Kill A Man Chords & Tabs

 

How I Could Just Kill A Man Chords & Tabs

Rage Against The Machine Chords & Tabs

Version: 3 Type: Tab 0 ratings
1 star 2 stars 3 stars 4 stars 5 stars
comments

How I Could Just Kill A Man Tab

Band: Rage Against The Machine (0riginally done by Cypress Hill)
Song: How I Could Just Kill A Man
Album: Renegades
Tuning: DADGBE
Tabbed by: Steve Q

I think this is one of the best songs off of Renegades if not the best.
This is the way I play it.

Verse (With wah pedal)

E|----------------------------------------------------------------------|
B|----------------------------------------------------------------------|
G|----------------------------------------------------------------------|
D|-----------------------------3----------------------------------------|
A|-3--5--3--5-----3--5--5---3-------3--5--3--5----3--5-5--3---5--------|
D|----------------------------------------------------------------------|
       
     
Chorus
[ Tab from: http://www.guitartabs.cc/tabs/r/rage_against_the_machine/how_i_could_just_kill_a_man_tab_ver_3.html ]
E|-------------------------------------------------------|
B|-------------------------------------------------------|
G|-------------------------------------------------------|
D|----5--3---3---5--3----0-0-0-0-0---x-x-3-5-3----------|
A|--3-5-3---3---5--3----0-0-0-0-0---x-x-3-5-3----------|
D|--0--------3---5-------0-0-0-0-0---x-x-3-5-3----------|

                                                                              
Interlude (made up of these to notes played very quickly so I can't tab it)

E|------------|
B|------------|
G|------------| lots of times (with wah pedal)
D|--5-3-5-----|
A|------------|
D|------------|

Bridge and Outro (slight palm mute)

E|-------------------------|
B|-------------------------|
G|-------------------------|
D|--0-0-0-0-0--------------|
A|--0-0-0-0-0--------------|
D|--0-0-0-0-0--------------|

Please rate/comment, any questions e-mail me at crunchie36@hotmail.com
Comments