Rage Against The Machine - Housin Chords & Tabs

 

Housin Chords & Tabs

Rage Against The Machine Chords & Tabs

Version: 1 Type: Bass Tab 0 ratings
1 star 2 stars 3 stars 4 stars 5 stars
comments

Housin Bass Tab

   
ratm-im housin'

tabbed by: sim

this my first tab but i think it is correct.

PENNYWISE RULE!!!

regular tuning

Verse:
g|--------------------------------------------
d|--------------------------------------------
a|---7/10-7-6-5-2-1--------7/10-7-6-5-2-1----- X 6
e|-0----------------3-5--0----------------0-0-

[ Tab from: http://www.guitartabs.cc/tabs/r/rage_against_the_machine/housin_btab.html ]
(coz im housin)
g|----------------
d|-2-2-----2-2---- X 2
a|----------------
e|-0-0-----0-0----


g|-------------------------
d|-------------------------  X4
a|-------------------------
e|-12-0-12-0-12-0-12-0-0-15 


chorus:
g|--------------------
d|-2-2-----0--0------- X4
a|-----0h2------2-0--- 
e|------------------3-
Comments