Rage Against The Machine - Freedom Chords & Tabs

 

Freedom Chords & Tabs

Rage Against The Machine Chords & Tabs

Version: 9 Type: Tab 0 ratings
1 star 2 stars 3 stars 4 stars 5 stars
comments

Freedom Tab

   
Artist-Rage Against the Machine
Song-Freedom
Album-Rage Against the Machine

Tuning-Drop D

e---------------------------------------------------x-x-x-----------|
B---------------------------------------------------x-x-x-----------|
G---------------------------------------------------x-x-x-----------|
D-------------------------------------------------------------------|
A-5-------3---------5-5------5-------3---------5--------------------|
D---3-5-0---5-3-5-3------0-3---3-5-0---5-3-5-3----------------------|


e-------------------------------------------------------------------|
B-------------------------------------------------------------------|
G-------------------------------------------------------------------|
D---------------------------------------------5-4-3-----------------|
A-5-------3---------5-5-----5-------3---------------5-4-3-----------|
D---3-5-0---5-3-5-3-----0-3---3-5-0---5-3-5-3-----------------------|
                                              . . . . . .

e------------------------------------------------*------------------|
B------------------------------------------------*------------------|
G------------------------------------------------*------------------|
D------------------------------------------------*------------------|
A-5-------3---------5-5-----5-------3---------5-----12/3------------|
D---3-5-0---5-3-5-3-----0-3---3-5-0---5-3-5-3-------12/3------------|

* Tom picks these strings on the head i think(not on the fretboard)but he uses his
Fender and it doesn't sound right on my guitar but thats what he does.

e--------------------------------------------------------------------|
B--------------------------------------------------------------------|
G--------------------------------------------------------------------|
D--------------------------------------------------------------------|
A-5-------3---------5-5-----5-------3---------5----------------------|
D---3-5-0---5-3-5-3-----0-3---3-5-0---5-3-5-3------------------------|

Verse
e-10------10-10---------10---10-10-----10-------10-10-----------------|
B-10------10-10---------10---10-10-----10-------10-10-----------------|
G-7-------7--7----------7----7--7------7--------7--7------------------|
D-5-------5--5----------5----5--5------5--------5--5----------5-4-5-5-|
A-------------------------------------------------------------5-4-5-5-|
D----0-0--------0-0-0-0------------0-0----0-0-0-------0-0-0-0---------|


e-10------10-10---------10---10-10-----10-------10-10-----------------|
B-10------10-10---------10---10-10-----10-------10-10-----------------|
G-7-------7--7----------7----7--7------7--------7--7------------------|
D-5-------5--5----------5----5--5------5--------5--5----------5-4-5-5-|
A-------------------------------------------------------------5-4-5-5-|
D----0-0--------0-0-0-0------------0-0----0-0-0-------0-0-0-0---------|


e---------------------------------------------------x-x-x-----------|
B---------------------------------------------------x-x-x-----------|
G---------------------------------------------------x-x-x-----------|
D-------------------------------------------------------------------|
A-5-------3---------5-5------5-------3---------5--------------------|
D---3-5-0---5-3-5-3------0-3---3-5-0---5-3-5-3----------------------|


e-------------------------------------------------------------------|
B-------------------------------------------------------------------|
G-------------------------------------------------------------------|
D---------------------------------------------5-4-3-----------------|
A-5-------3---------5-5-----5-------3---------------5-4-3-----------|
D---3-5-0---5-3-5-3-----0-3---3-5-0---5-3-5-3-----------------------|
                                              . . . . . .

e------------------------------------------------*------------------|
B------------------------------------------------*------------------|
G------------------------------------------------*------------------|
D------------------------------------------------*------------------|
A-5-------3---------5-5-----5-------3---------5-----12/3------------|
D---3-5-0---5-3-5-3-----0-3---3-5-0---5-3-5-3-------12/3------------|


e--------------------------------------------------------------------|
B--------------------------------------------------------------------|
G--------------------------------------------------------------------|
D--------------------------------------------------------------------|
A-5-------3---------5-5-----5-------3---------5----------------------|
D---3-5-0---5-3-5-3-----0-3---3-5-0---5-3-5-3------------------------|


e-10------10-10---------10---10-10-----10-------10-10---------------------|
B-10------10-10---------10---10-10-----10-------10-10---------------------|
G-7-------7--7----------7----7--7------7--------7--7----------------------|
D-5-------5--5----------5----5--5------5--------5--5----------5-4-5-5-----|
A-------------------------------------------------------------5-4-5-5-----|
D----0-0--------0-0-0-0------------0-0----0-0-0-------0-0-0-0---------0-0-|

Verse
e-10------10-10---------10---10-10-----10-------10-10-----------------|
B-10------10-10---------10---10-10-----10-------10-10-----------------|
G-7-------7--7----------7----7--7------7--------7--7------------------|
D-5-------5--5----------5----5--5------5--------5--5----------5-4-5-5-|
A-------------------------------------------------------------5-4-5-5-|
D----0-0--------0-0-0-0------------0-0----0-0-0-------0-0-0-0---------|

[ Tab from: http://www.guitartabs.cc/tabs/r/rage_against_the_machine/freedom_tab_ver_9.html ]
e---------------------------------------------------------------------|
B-------------------------------------10v-----------------------------|
G--------------------------------13v----------------------------------|
D--------0------------(0)---------------------------------------------|
A-3/12\3-0------------(0)---------------------------------------------|
D-3/12\3--------------(0)---------------------------------------------|
                   (fade in)

e------------------------------------------------------------------------|
B------------------------------------------------------------------------|
G------------------------------------------------------------------------|
D------------------------------------------------------------------------|
A-3-3-3-3-5-3---3-5---3-3-3-3-5-3---3-5---3-3-3-3-5-3---3-5--------------|
D-------------5-------------------5-------------------5------------------|


e-------------------------------------------------------------------|
B-------------------------------------------------------------------|
G-------------------------------------------------------------------|
D-------------------------------------------------------------------|
A-3-3-3-3-5-3---3-5--7-7-7-7-9-0-7-0-7-9-7-7-7-7-9-0-7-0-7-9--7-7-7-|
D-------------5-----------------------------------------------------|


e--------------------------------------------------------------------------|
B-------------------------------------x--x--x--x--x--x--x---x--x--x--x--x--|
G-------------------------------------x--x--x--x--x--x--x---x--x--x--x--x--|
D-------------------------------------x--x--x--x--x--x--x---x--x--x--x--x--|
A-7-9-0-7-0-7-9--7-7-7-7-9-0-7-0-7-9--15-15-15-15-15-15-17--15-17-15-15-17-|
D-------------------------------------x--x--x--x--x--x--x---x--x--x--x--x--|


e-------------------------------------------------------------------------|
B--x--x--x--x--x--x--x---x--x--x--x--x------------------------------------|
G--x--x--x--x--x--x--x---x--x--x--x--x------------------------------------|
D--x--x--x--x--x--x--x---x--x--x--x--x------------------------------------|
A--15-15-15-15-15-15-17--15-17-15-15-17-----------------------------------|
D--x--x--x--x--x--x--x---x--x--x--x--x------------------------------------|

e-------------------------------------------------------------------------|
B--x--x--x--x--x--x--x---x--x--x--x--x------------------------------------|
G--x--x--x--x--x--x--x---x--x--x--x--x------------------------------------|
D--x--x--x--x--x--x--x---x--x--x--x--x------------------------------------|
A--15-15-15-15-15-15-17--15-17-15-15-17-----------------------------------|
D--x--x--x--x--x--x--x---x--x--x--x--x------------------------------------|

e------------------------------------------------------------------------|
B--x--x--x--x--x--x------------------------------------------------------|
G--x--x--x--x--x--x------------------------------------------------------|
D--x--x--x--x--x--x------------------------------------------------------|
A--15-15-15-15-15-15-17--------------------------------------------------|
D--x--x--x--x--x--x------------------------------------------------------|

SOLO-more bassy tone/less distortion

e------------------------------------------------------------------------|
B------------------------------------------------------------------------|
G-------10--10-9\----------------------10b-------------10--10-12-14-15---|
D-10h12-----------------10-------10h12-----12\---10h12-------------------|
A------------------/9h12----10h12----------------------------------------|
D------------------------------------------------------------------------|

e----------------------------------------------------------------------------22-|
B-----------------17-18-17-------17-18-17------17-18-20-22b-20-18-20------------|
G--14-12-10-9\---17-------17----17-------17---17---------------------19-19------|
D---------------17-------------17------------17---------------------------------|
A-------------------------------------------------------------------------------|
D-------------------------------------------------------------------------------|

e------------------------------------------------------------------------|
B------------------------------------------------------------------------|
G------------------------------------------------------------------------| x4
D-----------5-3-5-3-5--------------------------3-------------------------|
A-5-3-5-3-5-----------3-2-3-2-3----------------3-------------------------|
D-------------------------------5-3-5-3-5-3--0-3-------------------------|

Play Verse-slide up after one bar with right fist, then nornal verse x4, and then the 
in open 4th,5th,and 6th strings.

e-------------------------------------------------------------------------|
B-----------11--12----11--------------------------------------------------|
G-------------------------------------------------------------------------|
D-0-----------------------------------------------------------------------|
A-0-----------------------------------------------------------------------|
D-0-----------------------------------------------------------------------|

Then bridge part(ascending notes-3 and 5, to 7 and 9)then repeatdly pick fret 3 on A 
over drum roll type thing. Then back into ascending bit but missing out the 7 and 9 bit and 
straight to 15th and 17th frets.Agter that:

e-0--|-------------------|------------------|--0-------------------------|
B-2--|-------------------|------------------|--2-------------------------|
G-3--|------------5-6-7--|------------------|--3-------------------------|
D-0--|--0-3-4-5-7--------|----------2-5-6-7-|--0-------------------------|
A-0--|-------------------|--0-3-4-5-0-3-4-5-|--0-------------------------|
D-0--|-------------------|--0-3-4-5---------|--0-------------------------|

   ----------5-6-7--|
Do 0-3-4-5-7--------| 16 times, then 2nd riff 16 times also, but last bar play only up 2 
power chord on A string and play final chord where necessary.

That's it!The ending on the record is just the band smashing up their stuff in the 
it sounds like. Awesome song, RATM kick ass!!

Enjoy.
Comments