Rage Against The Machine - Freedom Chords & Tabs

 

Freedom Chords & Tabs

Rage Against The Machine Chords & Tabs

Version: 7 Type: Tab 0 ratings
1 star 2 stars 3 stars 4 stars 5 stars
comments

Freedom Tab

#----------------------------------PLEASE NOTE--------------------------------#
#This file is the author's own work and represents their interpretation of the#
#song. You may only use this file for private study, scholarship, or research.#
#-----------------------------------------------------------------------------#
#-- File created with Instab - http://www.pconline.com/~smcarey/instab.html --#
#-----------------------------------------------------------------------------#

Author/Artist: rage against the machine
Title: freedom
Transcribed by: paul
Email: aint_life_a_bitc_h@hotmail.com

now i have transcribed it normal! i know that tom detunes the high E to D
dont know why?so this is for normal! sounds ok! no one will worry bout
little errors!(i hope)oh yeah.DROP D

-|--------------------------------------------------|--xxx---|---------------
-|--------------------------------------------------|--xxx---|---------------
-|--------------------------------------------------|--xxx---|---------------
-|--------------------------------------------------|--xxx---|---------------
-|-5-------3---------5-5-----5-------3-----------5--|--------|---------------
-|---0-3-5---5-3-5-3-----0-3---0-3-5----5-3-5-3-----|--------|---------------
                                                        ist time              

--|-22\--------|-----------------|-------------------------------------------
--|---\--------|-----------------|-------------------------------------------
--|---\--------|-----------------|-------------------------------------------
--|---\--------|--5-4-3----------|-------------------------------------------
--|------------|--------5-4-3-0--|-------------------------------------------
--|------------|-----------------|-------------------------------------------
    2nd time     third time (pm)                                              
[ Tab from: http://www.guitartabs.cc/tabs/r/rage_against_the_machine/freedom_tab_ver_7.html ]
-|---------------------------------------------------------------|------|----
-|-10------10-10------10-10-10------10-----10-10--------5\-4/-5--|---10\|----
-|-10------10-10------10-10-10------10-----10-10--------5\-4/-5--|---10\|----
-|-12------12-12------12-12-12------12-----12-12--------5\-4/-5--|---12\|----
-|-----00---------0000-----------00-----00--------0000-----------|------|----
-|-----00---------0000-----------00-----00--------0000-----------|------|----
       ..         ....           ..     ..        ....                        
-|--------------------------|----------------------------------------|-------
-|--------------------------|----------------------------------------|-------
-|--------------------------|----------------------------------------|-------
-|--------------------------|--10-10-10-------12-12-12-12-------10-12|-------
-|-333-----5-5-5-5-----3-5--|-----------12-10-------------12-10------|-------
-|-----5-3---------5-3------|----------------------------------------|-------
     heavy bit(i think it sound ok      then repeats with!                    
-|------------------------------------------------|--------------------------
-|------------------------------------------------|--------------------------
-|-----------------------------------------10b----|--------------------------
-|-------15--15-14\-------10--------10h12------12-|--------------------------
-|-15h17------------10h12-----10h12---------------|--------------------------
-|------------------------------------------------|--------------------------
   SOLO!!                                                                     

-|-------------------------------------------12-12-13-12------------12--12---
-|----------------------------------------13-------------13------13----------
-|-------------------------------------14---------------------14-------------
-|-------15--/17/19/20/19/17/15/14-------------------------------------------
-|-15h17---------------------------------------------------------------------
-|---------------------------------------------------------------------------
                                      !rake!                 !rake    !      

--13-12------------12--12-13--15--15b17r---15-13-15-13--------------22\|-----
--------13------13-------------------------------------15\-------------|-----
-------------14--------------------------------------------------------|-----
-----------------------------------------------------------------------|-----
-----------------------------------------------------------------------|-----
-----------------------------------------------------------------------|-----
              rake !                                                         

-|-------------------------------------------------|-------------------------
-|-------------------------------------------------|-------------------------
-|-------------------------------------------------|-------------------------
-|------------5-3-5-3-5-----------------------x-3--|-------------------------
-|-5-3-5-3-5------------3-2-3-2-3-------------x-3--|-------------------------
-|--------------------------------5-3-5-3-5-3-x-3--|-------------------------
                   heavy bridge                                               

-|------------------|-----------------------|--------------------------------
-|------------------|-----------------------|--------------------------------
-|-----------5-6-7--|-----------2--5-6-7----|--------------------------------
-|-0-3-5-6-7--------|-0--3-4-5--2--5-6-7----|--------------------------------
-|------------------|-0--3-4-5--0--3-4-5----|--------------------------------
-|------------------|-0--3-4-5--------------|--------------------------------
                           heavy end
Comments