Rage Against The Machine - Freedom Chords & Tabs

 

Freedom Chords & Tabs

Rage Against The Machine Chords & Tabs

Version: 3 Type: Tab 0 ratings
1 star 2 stars 3 stars 4 stars 5 stars
comments

Freedom Tab

Rage Against The Machine

Freedom

Drop D Tuning

Intro Main Riff
                                                                                  
e |------------------------------------------------------------------------|
B |------------------------------------------------------------------------|
G |----------------------------------------------------------X—X-X---------|
D |----------------------------------------------------------X—X-X---------|
A |---5---------3---------5-5-------5---------3---------5----X—X—X---------|
D |------0-3-5----5-3-5-3-------0-3----0-3-5----5-3-5-3------X—X—X---------|

e |------------------------------------------------------------------|
B |------------------------------------------------------------------|
G |------------------------------------------------------------------|
D |---------------------------------------------------5-4-3----------|
A |---5---------3---------5-5------5-------3-----------------5-4-3---|
D |------0-3-5----5-3-5-3------0-3---0-3-5----5-3-5-3----------------|
                                                P.M. |------------|
          
                                                       *Pick behind nut
e |------------------------------------------------------------------------|
B |--------------------------------------------------------*X-X-X----------|
G |--------------------------------------------------------*X-X-X----------|
D |------------------------------------------------------------------------|
A |---5---------3---------5-5------5-------3----------5--------------------|
D |------0-3-5----5-3-5-3------0-3---0-3-5----5-3-5-3--------------(12)\---|

Verse Riff                               1|---------------    2|----------|

e |--------------------------------------------------------------------------|
B |-------10----------10--10----------------10-----10-10------5\4/5--5--5----|
G |-------10----------10--10----------------10-----10-10------5\4/5--5--5----|
D |-------5-----------5---5-----------------5------5—-5-------5\4/5--5--5----|
A |-------5-----------5---5-----------------5------5—-5----------------------|
D |------------0—0-------------0—0—0-----------------------------------------|

     P.M    |------|         |-------|



Anger is a gift.. (changes are obvious)
e |------------------------------------------------------------|
B |------------------------------------------------------------|
G |------------------------------------------------------------|
D |------------------------------------------------------------|
A |----3-3-3--------5-—5p3----5----5-5-5-------7—-7p5-----7----|
D |------------5p0----------5------------7p0-----------7-------|
[ Tab from: http://www.guitartabs.cc/tabs/r/rage_against_the_machine/freedom_tab_ver_3.html ]
e |------------------------------------------------|
B |------------------------------------------------|
G |------------------------------------------------|
D |------------------------------------------------|
A |----11-11-11---------13-—13p11-------13---------|
D |----------------13p0------------13--------------|

Solo (Interlude)

e |-----------------------------------------------------------------------------|
B |-----------------------------------------------------------------------------|
G |-----/10~~~-10\9--9~~(9)\-----------------------------------10^--------------|
D |-------------------------------/10~~~------------10p12--------------12(\)----|
A |------------------------------------------10p12------------------------------|
D |-----------------------------------------------------------------------------|

e |-----------------------------------------------------------------------------|
B |------------------10p11p10---------------------------------------------------|
G |----/10~~--10p12------------12--10----8(8)/(9)~~~----------------------------|
D |-----------------------------------------------------------------------------|
A |-----------------------------------------------------------------------------|
D |-----------------------------------------------------------------------------|

            (rake)
e |--------12--13--13--12--12-------12--13--13--12--12----------------|
B |--------12-----------------------12--------------------------------|
G |--------12-----------------------12--------------------------------|
D |-------------------------------------------------------------------|
A |-------------------------------------------------------------------|
D |-------------------------------------------------------------------|

e |--------12--13--12—15^—(15)--15--12--15--12-----------------------------|
B |--------12------------------------------------15--15---------20-—20\----|
G |--------12--------------------------------------------------------------|
D |------------------------------------------------------------------------|
A |------------------------------------------------------------------------|
D |------------------------------------------------------------------------|

e |--------------------------------------------------------------|
B |--------------------------------------------------------------|
G |--------------------------------------------------------------|
D |------------5-3-5-3-5------------------------X---3--(3)-------|
A |--5-3-5-3-5-----------3-2-3-2-3--------------X---3—-(3)-------|
D |--------------------------------5-3-5-3-5----X---3--(3)-------|
         
            Freedom…yeah….
e |-------------------------------------------|
B |-------------------------------------------|
G |-----------------------5--6--7-------------|
D |-------------5--6--7-----------------------|
A |------5--8---------------------------------|
D |-------------------------------------------|

e |------------------------------------|
B |------------------------------------|
G |------------------------------------|
D |--0---3---5---7--8--9--10--11-------|
A |--0---3---5---7--8--9--10--11-------|
D |--0---3---5---7--8--9--10--11-------|
Comments