Rage Against The Machine - Freedom Chords & Tabs

 

Freedom Chords & Tabs

Rage Against The Machine Chords & Tabs

Version: 2 Type: Tab 2 ratings
1 star 2 stars 3 stars 4 stars 5 stars
comments

Freedom Tab

 Artist: Rage Against The machine        The Order Of Riffs: Riff 1
 Song Name: Freedom                                          Riff 2
 Tuning: Drop D    (eBGDAD)                                  Riff 1
 Version: Easy                                               Riff 3
 Tabbed By: Ricky Forleo                                     Verse X2
                                                             Riff 1
                                                             Riff 2
                                                             Riff 1                                                                                           Riff 3
                                                             Verse X2
                                                             2 Fade in's
                                                             Interlude X12
                                                             Solo
                                                             Riff 4 X4
                                                             Verse  X2
                                                             2 Fade In's
                                                             Interlude X15
                                                             Riff 5
Chords: None
                     Riff 1 (intro)
e|------------------------------------------------X---X--X----------|
B|------------------------------------------------X---X--X----------|
G|------------------------------------------------X---X--X----------|
D|------------------------------------------------X---X--X----------|
A|-5-------3---------5-5-----5-------3------------X---X--X----------|
D|---0-3-5---5-3-5-3-----0-3---0-3-5---5-3-5-3----X---X--X----------|

Chords
                    Riff 2 (intro)
e|------------------------------------------------------------------|
B|------------------------------------------------------------------|
G|------------------------------------------------------------------|
D|----------------------------------------------5-4-3---------------|
A|--5-------3---------5-5-----5-------3---------------5-4-3---------|
D|---0-3-5---5-3-5-3-----0-3---0-3-5---5-3-5-3----------------------|
[ Tab from: http://www.guitartabs.cc/tabs/r/rage_against_the_machine/freedom_tab_ver_2.html ]
Chords
                    Riff 3 (build up to verse)
e|------------------------------------------------------------------|
B|------------------------------------------------------------------|
G|------------------------------------------------------------------|
D|------------------------------------------------------------------|
A|--5-------3---------5-5-----5-------3-----------------------------|
D|---0-3-5---5-3-5-3-----0-3---0-3-5---5-3-5-3----------------------|

Chords
                    (Verse)
e|------------------------------------------------------------------|
B|------------------------------------------------------------------|
G|------------------------------------------------------------------|
D|--7-X-X-77-X-X-X-X-7-77-X-X-7-X-X-77-X-X-X-X----------------------|
A|--5-X-X-55-X-X-X-X-5-55-X-X-5-X-X-55-X-X-X-X--109-10-10-X-X----|
D|----------------------------------------------109-10-10-X-X----|


Chords
                    (interlude)
e|------------------------------------------------------------------|
B|------------------------------------------------------------------|
G|------------------------------------------------------------------|
D|------------------------------------------------------------------|
A|--3-3-3-3-----5-5-5-3---3-5---------------------------------------|
D|----------5-3---------5-------------------------------------------|
           

           I   (solo Which i dont know so i play I
           I    the bass line intro which is the I
           I    same as Normal intro)            I


Chords
                     (Riff 4)
e|------------------------------------------------------------------|
B|------------------------------------------------------------------|
G|------------------------------------------------------------------|
D|-----------5-3-5-3-5----------------------------------------------|
A|-5-3-5-3-5------------3-2-3-2-3---------------X-5-----------------|
D|---------------------------------5-3-5-3-5----X-3-----------------|

Chords
         (Riff 5)    (After he shouts " Freedom it goes to this Below)
e|------------------|------------------------------------0------------|
B|------------------|------------------------------------0------------|
G|------------------|------------------------------------0------------|
D|---------------3--|----------2-5-6-7---LAST CHORD IS---7------------|
A|---------3-4-5----|-0-3-4-5--0-3-4-5-------------------5------------|
D|-0-3-5-6----------|-0-3-4-5----------------------------0------------|

Comments