Rage Against The Machine - Freedom Chords & Tabs

 

Freedom Chords & Tabs

Rage Against The Machine Chords & Tabs

Version: 3 Type: Bass Tab 0 ratings
1 star 2 stars 3 stars 4 stars 5 stars
comments

Freedom Bass Tab

Rage Against The Machine - Freedom

Tabbed By Stephen Pang (piequat@hotmail.com)

*Dropped D Tuning*

Intro/Chorus
G|------------------------|----------------------------x-x-x--|
D|------------------------|----------------------------x-x-x--|
A|-5-------3----------5-5-|-------5-------3----------5-x-x-x--|
D|---0-3-5----5-3-5-3-----|-0-3-5---0-3-5----5-3-5-3---x-x-x--|
[ Tab from: http://www.guitartabs.cc/tabs/r/rage_against_the_machine/freedom_btab_ver_3.html ]
G|------------------------|---------------------------------------|
D|------------------------|--------------------------5-4-3--------|
A|-5-------3----------5-5-|-------5-------3----------------5-4-3--|
D|---0-3-5----5-3-5-3-----|-0-3-5---0-3-5----5-3-5-3--------------|

Verse
G|-------------|
D|-------------|
A|-------------|
D|-0-0--0-0-0--|

Bridge
G|---------------------|
D|---------------------|
A|-3--3--5--5-5-0h3h5--|
D|---------------------|

After Guitar Solo
G|--------------------------------------------------|
D|------------5-3-5-3-5-----------------------------|
A|-5-3-5-3-5-------------3-2-3-2-3------------------|
D|----------------------------------5-3-5-3-5-3--3--|

Ending
G|-----------------|
D|-----------------|
A|---------0-3-4-5-|
D|-0-3-4-5---------|
Comments