Rage Against The Machine - Evil Empire Chords & Tabs

 

Evil Empire Chords & Tabs

Rage Against The Machine Chords & Tabs

Version: 1 Type: Bass Tab 0 ratings
1 star 2 stars 3 stars 4 stars 5 stars
comments

Evil Empire Bass Tab

   
-------------------------------------------------------------------------------
			     EVIL EMPIRE - Rage Against the Machine
-------------------------------------------------------------------------------

All bass tab below by blisshaha


Song: PEOPLE OF THE SUN  (Track 1)

Tuning: Standard (EADG)



Intro Fill (used as a fill many times later)
G:----------------------------|
D:------0h1-0-----------------|
A:-------------0--3/5---------|
E:----------------------------|


Verse riff
G:------------------------------|
D:------------------------------|
A:-0-3-0-5-3-3p0-----0-3-0-5-3--|
E:------------------------------|


Chorus riff
G:--------------------------------|
D:--------------------------------|
A:--------------------------------|
E:-333333333333-1h3---------------|


Interlude riff
G:--------------------------------------|
D:------------------0h1-0---------------|
A:-0---0---0---0-----------0--3/5-------|
E:--------------------------------------|





Song: BULLS ON PARADE  (track 2)

Tuning: 1/2 step below standard tuning (Eb,Ab,Db,Gb)


            Riff 1.                    (x8)
Gb:--------|--------------------------------|--------|
Db:--Drum--|*--4-------4--4-------4--4-----*|--Rest--|
Ab:--Fill--|*------------------------------*|--------|
Eb:--------|------2----------2----------2---|--------|


    Riff 2.                      (x3)
Gb:-----------------------------------|----------------------------|
Db:*---------------------------------*|----------------------------|
Ab:*---------------------------------*|----------------------------|
Eb:---2--2--X-X--2--2--X-X-X-X-X--0---|--2--2--X-X--2--2--0--2--0--|


   Riff 3.                                 (x4)
Gb:---------------------------------------------|
Db:*-------------------------------------------*|
Ab:*--------0----2--0--------------------------*|
Eb:---0--2-------------0--2----2--0---0--0--1---|


   Riff 4.                                              (x4)
Gb:----------------------------------------------------------|---------------|
Db:*--5-4-------------------------5-4-----------------------*|--Riff-3-(x4)--|
Ab:*--------------------------------------------------------*|---------------|
Eb:--------2-r--2---0-2-2----2---------2-r--2--2-2-2-2-0-2---|---------------|


                   Bass Solo
Gb:---------------|---------------------------------------|
Db:--Riff-4-(x4)--|---------------------9--7--9-----7-----|
Ab:---------------|--2--2---(2)-2--7/9-----------9-----0--|
Eb:---------------|---------------------------------------|


Gb:--------------------------------------|
Db:-----------------9p7------------------|
Ab:--2--2----2--2/-------9--7p5-----7----|
Eb:------------------------------7-----0-|


Gb:--------------------------------------|
Db:--------------------------------------|
Ab:--2--2----2--2--7h9--9--7h9--9--9--9--|
Eb:--------------------------------------|


Gb:----------------14--16--16--16------------------|---------------|
Db:------------------------------------------------|--Riff-3-(x4)--|
Ab:--2--2---2--2/------------------12--14--14--14--|---------------|
Eb:------------------------------------------------|---------------|


  *Distortion On
Gb:---------------|-----------------------------|---------------|
Db:--Riff-2-(x3)--|--------------4-4------------|--Riff-2-(x4)--|
Ab:---------------|-----------------------------|---------------|
Eb:---------------|--2--2--X-2-2------0--2--0---|---------------|

                  
Gb:---------------|
Db:--Riff-1-(x8)--|
Ab:---------------|
Eb:---------------|




Song: VIETNOW  (track 3)

Tuning: Standard


Fill 1
G:---------------------------|
D:---------------------------|
A:--------0-0--------0-0--R--|
E:--2--2-------2--2----------|


Fill 2 					    Fill 3
G:-----------------------------------------|-------------------|
D:-----------------------------------------|-------------------|
A:------------------------0-0-------0-0-R--|-------------------|
E:---2-2-2-2-2-2-2-2-2--2-----2--2---------|-0-2-2-0-2-2-2-2óR-|


Riff 1 
G:----------------------------|-----------------------------|
D:----------------------------|-----------------------------|
A:--9-9-----------------------|-9-9-------------------------|
E:-------0--2--0--5b(6)(5)--0-|------0--2--0--5b(6)r(5)--0--|


     					Fill 4
G:-----------------------------|---------------------|
D:-----------------------------|---------------------|
A:-----------------------------|---------------------|
E:-2-2-0-2-0-5b(6)r(5)-4-0-2-2-|-X-X-X-X-X-X-X-X-X-X-|


Riff 2
G:-------------------------------------------------------------|
D:-------------------------------------------------------------|
A:-0--/9--3-----3--/9--3-----3--/9--3-----3--/9--9-7-9--9-7-9--|
E:-----------2------------2------------2-----------------------|


Riff 3
G:-----------------------------------------------------|
D:-----------------------------------------------------|
A:-----2-----2-0---2-0---2-0-------0-0--R--------0-0---|    
E:--2------------2-----2-----2--2----------2--2--------|


Riff 4
G:----------------------------|-------------|	
D:*---------------------------|-------------|	
A:*---------------------------|-------------|	
E:--0-2-2-0-2-2-2-2-X-X--X-X--|--X-2--X-3---|	



Song: REVOLVER  (track 4)

Tuning: Drop D (drop E string to D)


Riff 1a
G:---------------------------------------------------------|
D:--------------------------3------------------------------|
A:--3-4-5----------3--5-3-5-----3-4-5----------3--5-2-5----|
D:--------0--3--5---------------------0--3--5-----------0--|


Riff 1b
G:--------------------------------------------------------------|
D:---------------------------3h4p3------------------------------|
A:--3-4-5----------3--5-3-5--------3-4-5----------3--5-2-5------|
D:--------0--3--5------------------------0--3--5-----------0----|


G:----------------------------------------------------------|
D:---------------------------3------------------------------|
A:--3-4-5----------3--5-3-5-----3-4-5----------3--5-2-5-----|
D:--------0--3--5---------------------0--3--5-----------0---|


G:--------------------------------------------------------|
D:--------------------------3-----------------------------|
A:--3-4-5----------3--5-3-5-----3-4-5----------3--5-2-5---|
D:--------0--3--5---------------------0--3--5-----------0-|


grad> bend string up and (x3)
(BASS FIG. 2)
G:------------------------19-19-19-19-19-19-19-19-19----|
D:*----------------------------------------------------*|
A:*----------------------------------------------------*|
D:---0--------------------(0)---------------------------|
     (let D note ring)


(end fig. 2)
G:-----------------------------------|--------------|
D:-------------------3----5----7-----|--fig-2-(x2)--|
A:-----------------------------------|--------------|
D:--0---------------(0)--------------|--------------|


Bridge (x4)  Fill 1
G:-----------------------------------------|--------------|
D:*---------------------------------------*|--------------|
A:*-5-------------------------------------*|-5--5-5-5--5--|
D:----0--3h5-0--0-3h5-0--0-3h5-0--0-3h5-0--|--------------|


Chorus
G:----------------------------------------|-----------|---------|---------|
D:*----------3-------3-------3-----------*|-(3)-rest--|-fig-1a--|-fig-1b--|
A:*--5-0-3h5---0-3h5---0-3h5-------------*|-----------|---------|---------|
D:-----------------------------0-3h5------|-----------|---------|---------|

G:--------------|---------------|----------|---------------|--------------|
D:--Fig-2-(x3)--|--Bridge-(x4)--|--Fill-1--|--Chorus-(x8)--|--Fig-1a-(x3)-|
A:--------------|---------------|----------|---------------|-w/distortion-|
D:--------------|---------------|----------|---------------|--------------|

G:----------------------------------------------------------|
D:--------------------------3-------------------------------|
A:--3-4-5----------3--5-3-5-----3-4-5---3-4-5--3--5-2-5-----|
D:--------0--3--5---------------------0-----------------0---|

 (x3)
G:---------------------|--------------|----------------|
D:---------------------|-Bass-Fill-1--|--Chorus-(x8)---|
A:---------------------|--------------|--w/-distortion-|
D:--0------------------|--------------|----------------|




Song: SNAKE CHARMER  (track 5)

Tuning: Drop D (drop E string to D)

                                 Riff 1         (x16)
G:-------------|----------------|-------------------|
D:--Drum-Fill--|--Guitar-Intro--|*------------3-3--*|
A:-------------|----------------|*-------5---------*|
D:-------------|----------------|---0---------------|


   Riff 2                                 (x4)  Riff 3                (x5)
G:--------------------------------------------|--------------------------|
D:*------------------------------------------*|*------------------------*|
A:*-------5----3-5-3-5---------5------5-4-3--*|*-5-5-5-5-5-3------------*|
D:---0-------0------------0-------x-0---------|--------------------------|


                                           (x2)   Riff 4     (x6)
G:-------------------|--------------------------|----------------|
D:-------------------|*------------------------*|*--------------*|
A:-------------------|*-5-5-5-5-5-3------------*|*-------5\-----*|
D:--5-5-5-5-5-3-X-X--|--------------------------|---0------------|
                                    harm.-----|

             (x2) Riff 5                             (x4)
G:-----------------------------|----------------------------------------|
D:*---------------------------*|*----------5-3-0---7-5-0---12-10-------*|
A:*--------8\-----------6\----*|*-------5-------------------------8----*|
D:---3------------1------------|---0------------------------------------|


    Bass Fill
G:------------------------------------------|
D:------------------------------------------|
A:-------5--5--5--3-------------------------|
D:--0----------------5--3--0----------------|

[ Tab from: http://www.guitartabs.cc/tabs/r/rage_against_the_machine/evil_empire_btab.html ]
G:----------------------------------------|
D:----------------------------------------|
A:-------5----3-5-3-5------5------5-4-3---|
D:--0-------0---------0-------0-0---------|


G:--------------------------------------------------|
D:---------------------------------5-(5)/10-10h12---|
A:-------5----3-5-3-5------5-5-5h7------------------|
D:--0-------0---------0-----------------------------|


G:---------------------------------------|
D:---------------------------------------|
A:-------5----3-5-3-5------5-------------|
D:--0-------0---------0------0-0-5-5-3---|


G:--------------------------------------|-----------------|----------------|
D:--------------------------------------|-----------------|--Riff-1-(x12)--|
A:-------5----3-5-3-5------5-----5-4-3--|-----------------|----------------|
D:--0-------0---------0------0-0--------|--0-----REST-----|----------------|


G:---------------|---------------|---------------|---------------|
D:--Riff-2-(x4)--|--Riff-3-(x8)--|--Riff-4-(x16)-|--Riff-5-(x4)--|
A:---------------|---------------|---------------|---------------|
D:---------------|---------------|---------------|---------------|

                
G:-------------|
D:--Bass-Fill--|
A:-------------|
D:-------------|





Song: TIRE ME  (track 6)

Tuning: Drop D (drop E string to D)


    Verse Riff                              harmonics
G:-------------------------------------------<4>----------------|
D:-------------------------------------------<4>----------------|
A:----------------------------1-2--------------------------1-2--|
D:--3p0-0-3p0-0-3-r-3p0-0-3-5-----3p0-0-3p0-0----3p0-0-3-5------|

                                             harmonics
G:--------------------------------------------<4>--------------|
D:--------------------------------------------<4>---(ring)-----|
A:----------------------------1-2------------------------------|
D:--3p0-0-3p0-0-3-r-3p0-0-3-5-----3p0-0-3p0-0------------------|



                       Chorus Riff                  (x4)
G:-------------------|-----------------------------------|-------------|
D:--Verse-Riff-(x2)--|*---------------------------------*|-------------|
A:-------------------|*---5-8---5-8---5-8---5-8----3----*|-------------|
D:-------------------|--0-----0-----0-----0-----0--3-----|--0----(0)---|


G:-------------------|------------------------------|--------------------|
D:--Verse-Riff-(x2)--|------------------------------|--Chorus-Riff-(x4)--|
A:-------------------|------------------------------|--------------------|
D:-------------------|--0------0------0------0------|--------------------|
                                                               

                                            harmonics      (x2)
G:-------------------------------------------<4>--------------|
D:*------------------------------------------<4>--(ring)-----*|
A:*----------------------------------------------------------*|
D:--3p0-0-3p0-0-3--rest----------3p0-0-3p0-0------------------|


                            (x4)
G:-------------------------------|
D:*-----------------------------*|
A:*-----------------------------*|
D:--3p0-0-3p0-0-3--rest----------|


G:--------------------------------------------------------------------------|
D:--------------------------------------------------------------------------|
A:--------------------------------------------------------------------------|
D:--0-0-0-0---0-0-0---0-0-0---0-0-0---0-0-0---0-0-0---0-0-0---0-0-0---0-0-0-|


G:----------------------------------------------------------------|
D:----------------------------------------------------------------|
A:----------------------------------------------------------------|
D:-0-0-0---0-0-0---0-0-0---0-0-0---0-0-0---0-0-0---0-0-0-0-0-0-0--|


G:---------------------|--------------|---------------|------------------|
D:-Rest.---------------|--Verse-(x2)--|--Chorus-(x2)--|------------------|
A:---------------------|--------------|---------------|--rest---------3--|
D:---------------------|--------------|---------------|------------0--3--|
   I wanna be Jacki...


G:-----------------|--------|
D:--Chorus-(x8)----|--------|
A:-----------------|--(3)---|
D:-----------------|--(3)---|




Song: DOWN RODEO  (track 7)

Tuning: Standard


G:-----------------------------------------------|
D:-----------------------------------------------|
A:--4444444444444444444444444444666666666666x0---|
E:-----------------------------------------------|


G:------------------------------------------|
D:------------------------------------------|
A:------------------------------------------|
E:--0-2--x--2-0-0-2-0-2-3-2-0--0-2----------|


G:-------x--x-x------x--x-x------x--x-x------x--x-x------|
D:-------x--x-x------x--x-x------x--x-x------x--x-x------|
A:-------x--x-x------x--x-x------x--x-x------x--x-x------|
E:--0-2---------0-2---------0-2---------0-2--------------|


G:-------x--x-x------4(h)-----------x--x-x------x--x-x------|
D:-------x--x-x------4(h)-----------x--x-x------x--x-x------|
A:-------x--x-x------4(h)-----------x--x-x------x--x-x------|
E:--0-2---------0-2------------0-2---------0-2--------------|


G:-----------------------------------------------|
D:-----------17-17-17-17-17----------------------|
A:--10-------------------------------------------|
E:-----------------------------------------------|


G:----------------------------------------------------------------------------|
D:-------16/17-17-17-17-17--------16/17-17-17-17-17--------16/17-17-17-17-17--|
A:----------------------------------------------------------------------------|
E:--0-2-----------------------2-----------------------0-2---------------------|

G:--------------------------------|
D:----------16/17-17-17-17-17-----|
A:--------------------------------|
E:--0---2-------------------------|

Fill (for previous riff)
G:-----------------------------|
D:--------17-16-0-17-16-0-17---|
A:-----------------------------|
E:--0--2-----------------------|


G:------------------------------------------|
D:------------------------------------------|
A:------------------------------------------|
E:---3-3-3-3-3-3-3-3-3-3-3-3-3-3-X-0--------|


G:-------x--x-x--------------------------------|
D:-------x--x-x--------------------------------|
A:-------x--x-x------5-5-5-5-5-5-5-5-5-5-5-5---|
E:--0-2---------0-2----------------------------|


G:----------------------------------|
D:----------------------------------|
A:------------------555555555555555-|
E:--0-0-0-0-0-0-0-0-----------------|


G:----------------------------------------------|
D:----------------------------------------------|
A:---------5-------3-------------5-------8------|
E:--0----------------------0--------------------|




Song: WITHOUT A FACE  (track 8)

Tuning: Standard

G:--------------------------------------|
D:--------------------------------------|
A:--7--0--1--3------------------7--5----|
E:-----------1--------------------------|


G:--------------------------------------|
D:--------------------------------------|
A:--------------------------------------|
E:--1--1--1--3--------------------------|


G:------------------------------------------|
D:------------------------------------------|
A:------------------------------------------|
E:--3-1-3-1-3-1-3-1-3-1-3-1--1--3-----------|


G:-----------------------------------------------|
D:-----------------------------------------------|
A:-----------------------------------------------|
E:--3-1-3-1-3-1-3-1-3-1-3-1-3-1-3-1-3-1-3-1-3----|






Song: WIND BELOW  (track 9)

Tuning: Standard

G:------------------------------------------------------|
D:------------------------------2-----------------------|
A:-2-0-2-3-2-0---------0------4-----2-0-2-3-2-0---------|
E:---------------2-1-0---2-----------------------0------|


G:-----------------------------------------------|
D:-----2---2-0-----------------------------------|
A:-1/2---2---------------------------------------|
E:--------------3--0-----0--0--------------------|


G:------------------------x--x--x--x--x--x--x-----|
D:------------------------x--x--x--x--x--x--x-----|
A:------------------------x--x--x--x--x--x--x-----|
E:--0-2-0-0-0-0-0---------------------------------|





Song: ROLL RIGHT  (track 10)

Tuning: Standard


G:----------------------------------------------|
D:----0-11-0-9----------------------------------|
A:-------------0-11-0-10-0-9--------------------|
E:--9------------------------0-12-0-7-0-7-9-----|


G:---------------------------------|
D:---------------------------------|
A:---------------------------------|
E:--9\--0-9-9--12p0-0-11p0-0-10p0--|


G:---------------------------------|
D:---------------------------------|
A:--------------------------2--4---|
E:--0------------------------------|


G:---------------------------------------|
D:---------------------------------------|
A:---------------------------------------|
E:--0-------0-------0-------0------------|


G:---------------------------------------|
D:-----------------------10-/-12---------|
A:-------5-/-7---------------------------|
E:--0-----------3--0---------------------|



Song: YEAR OF THA BOOMERANG  (track 11)

Tuning: Drop D (drop E string to D)


main riff
G:---------------------------------------------------|
D:----0-h2--------------0-h2-------------------------|
A:---------------------------------------------------|
D:-2--------0-2-----0-2-------0-2--------------------|


Riff 2a
G:-----------------------------|
D:-----------------------------|
A:-----------------------------|
D:--4-4--2-4-4--2-4-4--2-4-4---|


Riff 2b
G:-------------------------------------------------------|
D:-------------------------------------------------------|
A:--------0------------0------------0-----------------0--|
D:--4-4-4---2----4-4-4---2----4-4-4---2-----4-4-4-2-4---2|


Riff 2c (outro)
G:-------------------|
D:*-----------------*|
A:*------------0----*|
D:---4-4-4-2-4---2---|
Comments