Rage Against The Machine - Down Rodeo Chords & Tabs

 

Down Rodeo Chords & Tabs

Rage Against The Machine Chords & Tabs

Version: 2 Type: Bass Tab 0 ratings
1 star 2 stars 3 stars 4 stars 5 stars
comments

Down Rodeo Bass Tab

   
Down Rodeo by Rage Against The Machine
tabbed by r.allen.canterbury

Notes:  I'm pretty certain this tab is *wrong*.  But there are some tricky
things to figure out...like the high-pitched harmonic sounds I put in.  Not
sure whether that's guitar or bass.  The notes like <4>. mean play a harmonic
but make the note short (staccato) so it's sort of a harmonic "click".  In
general this is how I play it, but I would love to get improvements for it.

Standard Tuning (E,A,D,G)

   Intro                         (x3)
G:-----------------------------------|---------------------------------|
D:-----------------------------------|---------------------------------|
A:--4-4-4-4-4-4-4-4-4-4-4-4-4-4-4-4--|--7-7-7-7-7-7-7-7-7-7-7-7--------|
E:-----------------------------------|--------------------------0--7---|


    Bass Fig. 1                                    (x3)
G:-----------------------------------------------------|
D:*------4--------------------------------------------*|
A:*---------------------------------------------------*|
E:--2-2----2-2-0-2-0-2-3-2-0--0-2--X--X-X-X-X--X--X-X--|
   *use distortion for this


                                                 (x4)
G:--------------------------------|------------------|
D:-------4------------------------|------------------|
A:--------------------------------|------------------|
E:--2-2----2-2-0-2-0-2-3-2-0---0--|--0--2--X--X-X-0--|


                                                         |~~Bass Fig. 2~~~~~~
                                                                        (x4)
G:--------<4>-----------<4>----------<4>----------<4>----|------------------|
D:---------X------------<4>-----------X-----------<4>----|------------------|
A:-------------------------------------------------------|------------------|
E:--0--2-------2-2-0-2--------2-2-0-2-----X-2-0-2-----0--|--0--2--X--X-X-0--|

                                                                 
  ~~~~~~~~~~~~~~~~~~~~~~~~~~~~~~~~~~~~~~~~~~~~~~~~~~~~~~~~~~~~~|

G:--------<4>.----------<4>.----------<4>.-----------<4>.-------|
D:--------<4>.----------<4>.----------<4>.-----------<4>.-------|
A:--------------------------------------------------------------|
E:--0--2--------2-2-0-2-------2-2-0-2-------2-2-0-2--------X-0--|



G:---------------------------/12-12-12-12-12-12-12-12--|
D:-----------------------------------------------------|
A:-----------------------------------------------------|
E:--0--2--X--X-X--0--2---3-----------------------------|
                             *distortion off
                                           
  Bass Fig. 3
G:--------------/12-12-12-12-12-12-12--|
D:-------------------------------------|
A:-------------------------------------|
E:--0--2-------------------------------|

G:------------/12-12-12-12-12-12-12--|
D:-----------------------------------|
A:-----------------------------------|
E:-----2-----------------------------|

G:------------/12-12-12-12-12-12-12--|
D:-----------------------------------|
A:-----------------------------------|
E:--0--2-----------------------------|

                        (End Fig. 3)                      (x7)
G:----------/12-12-12-12-12-12-12--|--------------|-----------|--------|
D:---------------------------------|--Fig-3-(x2)--|--5-5-5-5--|--------|
A:---------------------------------|--------------|-----------|--X--7--|
E:-0--R--2-------------------------|--------------|-----------|--------|

[ Tab from: http://www.guitartabs.cc/tabs/r/rage_against_the_machine/down_rodeo_btab_ver_2.html ]
                |~~~~~~~~~~~~~~~~
                           (x4)
G:--------------|---------------|
D:--Fig-1-(x4)--|---------------|
A:--------------|---------------|
E:--------------|-0--2--X--X-0--|
   *distortion on
                                                  (x2)
  ~~~~~~~~~~~~~~~~~~~~~~~~~~~~~~~~~~~~~~~~~~~~~~~~~~~~~|

G:----------------------<4>------------------------<4>--|
D:-------<4><4>---------<4>----------<4><4>--------<4>--|
A:------------------------------------------------------|
E:--0--2--------X-0--2-------X-2-0-2--------X-0--2------|


G:-------------------------/12-12-12-12-12-12-12-12--|
D:---------------------------------------------------|
A:---------------------------------------------------|
E:--0--2--X--X-0--0--2--3----------------------------|
                             *distortion off

Gtr. Solo
  
G:--------------/12-12-12-12-12-12-12--|
D:-------------------------------------|
A:-------------------------------------|
E:--0--2-------------------------------|

G:--------------/12-12-12-12-12--9-12--|
D:-------------------------------------|
A:-------------------------------------|
E:-----2-------------------------------|

G:--------------/12-12-12-12-12-12-12--|
D:-------------------------------------|
A:-------------------------------------|
E:--0--2-------------------------------|

G:---------------12--9----12--9----12-12--|
D:---------------------12-------12--------|
A:----------------------------------------|
E:--0--R--2-------------------------------|

G:--------------/12-12-12-12-12-12-12--|
D:-------------------------------------|
A:-------------------------------------|
E:--0--2-------------------------------|

G:--------------/12-12-12-12-12--9-12--|
D:-------------------------------------|
A:-------------------------------------|
E:-----2-------------------------------|

G:--------------/12-12-12-12-12-12-12--|
D:-------------------------------------|
A:-------------------------------------|
E:--0--2-------------------------------|

G:---------------12--9----12----12-12--|
D:---------------------12----12--------|
A:-------------------------------------|
E:--0--R--2----------------------------|

                       (x7)
G:-------------|-----------|----------|--------------|--------------|
D:--Fig-3-(x2)-|--5-5-5-5--|----------|--Fig-1-(x4)--|--Fig-2-(x2)--|
A:-------------|-----------|--X--7----|--------------|--------------|
E:-------------|-----------|----------|--------------|--------------|
                                        *distortion on

G:----------------------|--------------------------|
D:----------------------|--------------------------|
A:----------------------|--5-5-5-5-5-5-5-5-...-----|
E:--0--2--X--X-0--0--2--|--------------------------|
                          Play this for a while... (distortion off)

                                                          (x7)
G:-------------------------------------------------------------|
D:-------------------------------------------------------------|
A:---------------------------5-5-5-5-5-5-5-5-5-5-5-5-5-5-5-5---|
E:---0--0--0--0--0--0--0--0------------------------------------|


  Outro
G:----------------------------|--------------------------|
D:----------------------------|--------------------------|
A:-------------5-----3--------|-----------5-----8--------|
E:---0------------------------|-0------------------------|


G:---------------------------------------------|
D:---------------------------------------------|
A:-----------5-----3--------7---(ring)---------|
E:--0-----------------------0------------------|



/----------------------------------------\ 
|  ____    ____                          |
| (    `--'  .-'               _T_T_T_T_ |
| |8| O  O  |||||||||||||||||||[o o o o/ | 
| (__,--.____\                 `~~~`--'  |
|     from the desk of jaco pastorius..  |
|            acanterb@vt.edu             |
|  http://www.vt.edu:10021/A/acanterb/   |
\----------------------------------------/



Comments