Rage Against The Machine - Darkness Of Greed Chords & Tabs

 

Darkness Of Greed Chords & Tabs

Rage Against The Machine Chords & Tabs

Version: 1 Type: Bass Tab 0 ratings
1 star 2 stars 3 stars 4 stars 5 stars
comments

Darkness Of Greed Bass Tab

Darkness by Rage Against The Machine

from the Crow Soundtrack album.

Tabbed By: JP Fernandez

  intro part

     riff 1                  tail

G:-----------------------|-------------|
D:------------7--7-------|-------------|
A:---7--9--10------10-9--|--10-9-7-----|
E:-----------------------|---------10--|


     verse                                 FAST!

G:-------------------------------------------------|---------|
D:*-----------------------------------------------*|-intro---|
A:*--5--7-7--7-8-7--7-7-5-7--5-7-7--7-8-7--77777--*|-again---|
E:-------------------------------------------------|---------|



    Solo bit...
[ Tab from: http://www.guitartabs.cc/tabs/r/rage_against_the_machine/darkness_of_greed_btab.html ]
G:---------------|------|--------------|-----------|--------|------|
D:---riff-1-(2x)-|-tail-|--riff-1-(2x)-|--9---9-9--|-riff1--|-tail-|
A:---------------|------|--------------|-----------|--------|------|
E:---------------|------|--------------|-----------|--------|-------|



G:---------|-------------|-------------|-------------|------------|
D:-riff-1--|-------------|-riff-1-(2x)-|-------------|-verse-part-|
A:---------|-3--5--------|-------------|-------------|--?-times---|
E:---------|-------3--0--|-------------|--2-2-2-2-2--|------------|


G:--------------|--------------------|
D:-riff-1-(3x---|----------7--11--7--|
A:--one-time-w/-|--7--9-10-----------|
E:---tail-------|--------------------|
Comments