Rage Against The Machine - Clear The Lane Chords & Tabs

 

Clear The Lane Chords & Tabs

Rage Against The Machine Chords & Tabs

Version: 1 Type: Bass Tab 1 rating
1 star 2 stars 3 stars 4 stars 5 stars
comments

Clear The Lane Bass Tab

Song- Clear the Lane
Band- Rage Against The Machine
Tabbed by Grant

This is an old song, I had never even heard it until just
recently on the live and rare cd, enjoy (standard tuning)


MAIN RIFF
G--------------------]
D----9---------------]
A------8-------------]
E--------7--8--5--7--]

CHORUS
[ Tab from: http://www.guitartabs.cc/tabs/r/rage_against_the_machine/clear_the_lane_btab.html ]
G-------------------------------------------------------]
D-------------------------------------------------------]
A----5--5-5-------------------5--5-5-------5h7-7h8-8888-]
E-7-7------5-7-7--7-7-6---7-7--------5-7-7--------------]

OTHER RIFF

G-------------------------------------------------------]
D-------------------------------------------------------]
A----5------0-------5----------5-----0-------5----------]
E--7----2-2---2---7---7h8p7--7---2-2---2---7---7-0h7h8p7]


That's it but be carful there are some subtle time 
changes near the end do watch out. Later

Comments